  0
SECTION
  2
HEADER
  9
$ACADVER
  1
AC1015
  9
$ACADMAINTVER
 70
     6
  9
$DWGCODEPAGE
  3
ANSI_1252
  9
$INSBASE
 10
0.0
 20
0.0
 30
0.0
  9
$EXTMIN
 10
-485.7
 20
0.0
 30
0.0
  9
$EXTMAX
 10
485.7
 20
400.0
 30
0.0
  9
$LIMMIN
 10
0.0
 20
0.0
  9
$LIMMAX
 10
420.0
 20
297.0
  9
$ORTHOMODE
 70
     0
  9
$REGENMODE
 70
     1
  9
$FILLMODE
 70
     1
  9
$QTEXTMODE
 70
     0
  9
$MIRRTEXT
 70
     1
  9
$LTSCALE
 40
1.0
  9
$ATTMODE
 70
     1
  9
$TEXTSIZE
 40
3.5
  9
$TRACEWID
 40
1.0
  9
$TEXTSTYLE
  7
Standard
  9
$CLAYER
  8
0
  9
$CELTYPE
  6
ByLayer
  9
$CECOLOR
 62
   256
  9
$CELTSCALE
 40
1.0
  9
$DISPSILH
 70
     0
  9
$DIMSCALE
 40
1.0
  9
$DIMASZ
 40
3.302
  9
$DIMEXO
 40
1.0
  9
$DIMDLI
 40
3.75
  9
$DIMRND
 40
0.0
  9
$DIMDLE
 40
0.0
  9
$DIMEXE
 40
1.0
  9
$DIMTP
 40
0.0
  9
$DIMTM
 40
0.0
  9
$DIMTXT
 40
3.5
  9
$DIMCEN
 40
2.5
  9
$DIMTSZ
 40
0.0
  9
$DIMTOL
 70
     0
  9
$DIMLIM
 70
     0
  9
$DIMTIH
 70
     1
  9
$DIMTOH
 70
     1
  9
$DIMSE1
 70
     0
  9
$DIMSE2
 70
     0
  9
$DIMTAD
 70
     1
  9
$DIMZIN
 70
     1
  9
$DIMBLK
  1

  9
$DIMASO
 70
     1
  9
$DIMSHO
 70
     1
  9
$DIMPOST
  1

  9
$DIMAPOST
  1

  9
$DIMALT
 70
     0
  9
$DIMALTD
 70
     3
  9
$DIMALTF
 40
0.0393700787
  9
$DIMLFAC
 40
1.0
  9
$DIMTOFL
 70
     1
  9
$DIMTVP
 40
0.0
  9
$DIMTIX
 70
     0
  9
$DIMSOXD
 70
     0
  9
$DIMSAH
 70
     0
  9
$DIMBLK1
  1

  9
$DIMBLK2
  1

  9
$DIMSTYLE
  2
ISO-25
  9
$DIMCLRD
 70
     0
  9
$DIMCLRE
 70
     0
  9
$DIMCLRT
 70
     0
  9
$DIMTFAC
 40
1.0
  9
$DIMGAP
 40
1.524
  9
$DIMJUST
 70
     0
  9
$DIMSD1
 70
     0
  9
$DIMSD2
 70
     0
  9
$DIMTOLJ
 70
     0
  9
$DIMTZIN
 70
     1
  9
$DIMALTZ
 70
     0
  9
$DIMALTTZ
 70
     0
  9
$DIMUPT
 70
     0
  9
$DIMDEC
 70
     2
  9
$DIMTDEC
 70
     2
  9
$DIMALTU
 70
     2
  9
$DIMALTTD
 70
     3
  9
$DIMTXSTY
  7
Standard
  9
$DIMAUNIT
 70
     0
  9
$DIMADEC
 70
     2
  9
$DIMALTRND
 40
0.0
  9
$DIMAZIN
 70
     0
  9
$DIMDSEP
 70
    44
  9
$DIMATFIT
 70
     3
  9
$DIMFRAC
 70
     0
  9
$DIMLDRBLK
  1

  9
$DIMLUNIT
 70
     2
  9
$DIMLWD
 70
    -2
  9
$DIMLWE
 70
    -2
  9
$DIMTMOVE
 70
     0
  9
$LUNITS
 70
     2
  9
$LUPREC
 70
     2
  9
$SKETCHINC
 40
1.0
  9
$FILLETRAD
 40
10.0
  9
$AUNITS
 70
     0
  9
$AUPREC
 70
     2
  9
$MENU
  1
.
  9
$ELEVATION
 40
0.0
  9
$PELEVATION
 40
0.0
  9
$THICKNESS
 40
0.0
  9
$LIMCHECK
 70
     0
  9
$CHAMFERA
 40
0.0
  9
$CHAMFERB
 40
0.0
  9
$CHAMFERC
 40
0.0
  9
$CHAMFERD
 40
0.0
  9
$SKPOLY
 70
     0
  9
$TDCREATE
 40
2459257.49966007
  9
$TDUCREATE
 40
2459257.49966007
  9
$TDUPDATE
 40
2459257.499682338
  9
$TDUUPDATE
 40
2459257.499682338
  9
$TDINDWG
 40
0.0000000116
  9
$TDUSRTIMER
 40
0.0000000116
  9
$USRTIMER
 70
     1
  9
$ANGBASE
 50
0.0
  9
$ANGDIR
 70
     0
  9
$PDMODE
 70
     0
  9
$PDSIZE
 40
-1.0
  9
$PLINEWID
 40
0.0
  9
$SPLFRAME
 70
     0
  9
$SPLINETYPE
 70
     6
  9
$SPLINESEGS
 70
     8
  9
$HANDSEED
  5
3FD
  9
$SURFTAB1
 70
     6
  9
$SURFTAB2
 70
     6
  9
$SURFTYPE
 70
     6
  9
$SURFU
 70
     6
  9
$SURFV
 70
     6
  9
$UCSBASE
  2

  9
$UCSNAME
  2

  9
$UCSORG
 10
0.0
 20
0.0
 30
0.0
  9
$UCSXDIR
 10
1.0
 20
0.0
 30
0.0
  9
$UCSYDIR
 10
0.0
 20
1.0
 30
0.0
  9
$UCSORTHOREF
  2

  9
$UCSORTHOVIEW
 70
     0
  9
$UCSORGTOP
 10
0.0
 20
0.0
 30
0.0
  9
$UCSORGBOTTOM
 10
0.0
 20
0.0
 30
0.0
  9
$UCSORGLEFT
 10
0.0
 20
0.0
 30
0.0
  9
$UCSORGRIGHT
 10
0.0
 20
0.0
 30
0.0
  9
$UCSORGFRONT
 10
0.0
 20
0.0
 30
0.0
  9
$UCSORGBACK
 10
0.0
 20
0.0
 30
0.0
  9
$PUCSBASE
  2

  9
$PUCSNAME
  2

  9
$PUCSORG
 10
0.0
 20
0.0
 30
0.0
  9
$PUCSXDIR
 10
1.0
 20
0.0
 30
0.0
  9
$PUCSYDIR
 10
0.0
 20
1.0
 30
0.0
  9
$PUCSORTHOREF
  2

  9
$PUCSORTHOVIEW
 70
     0
  9
$PUCSORGTOP
 10
0.0
 20
0.0
 30
0.0
  9
$PUCSORGBOTTOM
 10
0.0
 20
0.0
 30
0.0
  9
$PUCSORGLEFT
 10
0.0
 20
0.0
 30
0.0
  9
$PUCSORGRIGHT
 10
0.0
 20
0.0
 30
0.0
  9
$PUCSORGFRONT
 10
0.0
 20
0.0
 30
0.0
  9
$PUCSORGBACK
 10
0.0
 20
0.0
 30
0.0
  9
$USERI1
 70
     0
  9
$USERI2
 70
     0
  9
$USERI3
 70
     0
  9
$USERI4
 70
     0
  9
$USERI5
 70
     0
  9
$USERR1
 40
0.0
  9
$USERR2
 40
0.0
  9
$USERR3
 40
0.0
  9
$USERR4
 40
0.0
  9
$USERR5
 40
0.0
  9
$WORLDVIEW
 70
     1
  9
$SHADEDGE
 70
     3
  9
$SHADEDIF
 70
    70
  9
$TILEMODE
 70
     1
  9
$MAXACTVP
 70
    64
  9
$PINSBASE
 10
0.0
 20
0.0
 30
0.0
  9
$PLIMCHECK
 70
     0
  9
$PEXTMIN
 10
-485.7
 20
0.0
 30
0.0
  9
$PEXTMAX
 10
485.7
 20
400.0
 30
0.0
  9
$PLIMMIN
 10
-561.2953307393
 20
-28.3482490272
  9
$PLIMMAX
 10
561.2953307393
 20
765.4027237354
  9
$UNITMODE
 70
     0
  9
$VISRETAIN
 70
     1
  9
$PLINEGEN
 70
     0
  9
$PSLTSCALE
 70
     1
  9
$TREEDEPTH
 70
  3020
  9
$CMLSTYLE
  2
Standard
  9
$CMLJUST
 70
     0
  9
$CMLSCALE
 40
20.0
  9
$PROXYGRAPHICS
 70
     1
  9
$MEASUREMENT
 70
     1
  9
$CELWEIGHT
370
    -1
  9
$ENDCAPS
280
     0
  9
$JOINSTYLE
280
     0
  9
$LWDISPLAY
290
     1
  9
$INSUNITS
 70
     4
  9
$HYPERLINKBASE
  1

  9
$STYLESHEET
  1

  9
$XEDIT
290
     1
  9
$CEPSNTYPE
380
     0
  9
$PSTYLEMODE
290
     1
  9
$FINGERPRINTGUID
  2
{ec2dce8a-6c08-4abf-8de6-0e428518bf85}
  9
$VERSIONGUID
  2
{FAEB1C32-E019-11D5-929B-00C0DF256EC4}
  9
$EXTNAMES
290
     1
  9
$PSVPSCALE
 40
0.0
  9
$OLESTARTUP
290
     0
  0
ENDSEC
  0
SECTION
  2
CLASSES
  0
CLASS
  1
ACDBDICTIONARYWDFLT
  2
AcDbDictionaryWithDefault
  3
ObjectDBX Classes
 90
        0
280
     0
281
     0
  0
CLASS
  1
VISUALSTYLE
  2
AcDbVisualStyle
  3
ObjectDBX Classes
 90
     4095
280
     0
281
     0
  0
CLASS
  1
MATERIAL
  2
AcDbMaterial
  3
ObjectDBX Classes
 90
     1153
280
     0
281
     0
  0
CLASS
  1
SCALE
  2
AcDbScale
  3
ObjectDBX Classes
 90
     1153
280
     0
281
     0
  0
CLASS
  1
TABLESTYLE
  2
AcDbTableStyle
  3
ObjectDBX Classes
 90
     4095
280
     0
281
     0
  0
CLASS
  1
MLEADERSTYLE
  2
AcDbMLeaderStyle
  3
ACDB_MLEADERSTYLE_CLASS
 90
     4095
280
     0
281
     0
  0
CLASS
  1
SUN
  2
AcDbSun
  3
SCENEOE
 90
     1153
280
     0
281
     0
  0
CLASS
  1
ACDBPLACEHOLDER
  2
AcDbPlaceHolder
  3
ObjectDBX Classes
 90
        0
280
     0
281
     0
  0
CLASS
  1
LAYOUT
  2
AcDbLayout
  3
ObjectDBX Classes
 90
        0
280
     0
281
     0
  0
ENDSEC
  0
SECTION
  2
TABLES
  0
TABLE
  2
VPORT
  5
8
330
0
100
AcDbSymbolTable
 70
     1
  0
VPORT
  5
29
330
8
100
AcDbSymbolTableRecord
100
AcDbViewportTableRecord
  2
*Active
 70
     0
 10
0.0
 20
0.0
 11
1.0
 21
1.0
 12
0.0
 22
200.0
 13
0.0
 23
0.0
 14
10.0
 24
10.0
 15
10.0
 25
10.0
 16
0.0
 26
0.0
 36
1.0
 17
0.0
 27
0.0
 37
0.0
 40
408.0
 41
2.4285
 42
50.0
 43
0.0
 44
0.0
 50
0.0
 51
0.0
 71
     0
 72
   100
 73
     1
 74
     3
 75
     0
 76
     0
 77
     0
 78
     0
281
     0
 65
     1
110
0.0
120
0.0
130
0.0
111
1.0
121
0.0
131
0.0
112
0.0
122
1.0
132
0.0
 79
     0
146
0.0
  0
ENDTAB
  0
TABLE
  2
LTYPE
  5
5
330
0
100
AcDbSymbolTable
 70
     6
  0
LTYPE
  5
14
330
5
100
AcDbSymbolTableRecord
100
AcDbLinetypeTableRecord
  2
ByBlock
 70
     0
  3

 72
    65
 73
     0
 40
0.0
  0
LTYPE
  5
15
330
5
100
AcDbSymbolTableRecord
100
AcDbLinetypeTableRecord
  2
ByLayer
 70
     0
  3

 72
    65
 73
     0
 40
0.0
  0
LTYPE
  5
16
330
5
100
AcDbSymbolTableRecord
100
AcDbLinetypeTableRecord
  2
Continuous
 70
     0
  3
Solid line
 72
    65
 73
     0
 40
0.0
  0
LTYPE
  5
6E
330
5
100
AcDbSymbolTableRecord
100
AcDbLinetypeTableRecord
  2
HIDDEN
 70
     0
  3
Hidden __ __ __ __ __ __ __ __ __ __ __ __ __ __
 72
    65
 73
     2
 40
1.905
 49
1.27
 74
     0
 49
-0.635
 74
     0
  0
LTYPE
  5
6F
330
5
100
AcDbSymbolTableRecord
100
AcDbLinetypeTableRecord
  2
PHANTOM
 70
     0
  3
Phantom ______  __  __  ______  __  __  ______
 72
    65
 73
     6
 40
12.7
 49
6.35
 74
     0
 49
-1.27
 74
     0
 49
1.27
 74
     0
 49
-1.27
 74
     0
 49
1.27
 74
     0
 49
-1.27
 74
     0
  0
LTYPE
  5
70
330
5
100
AcDbSymbolTableRecord
100
AcDbLinetypeTableRecord
  2
CENTER
 70
     0
  3
Center ____ _ ____ _ ____ _ ____ _ ____ _ ____
 72
    65
 73
     4
 40
10.16
 49
6.35
 74
     0
 49
-1.27
 74
     0
 49
1.27
 74
     0
 49
-1.27
 74
     0
  0
LTYPE
  5
71
330
5
100
AcDbSymbolTableRecord
100
AcDbLinetypeTableRecord
  2
CENTERX2
 70
     0
  3
Center (2x) ________  __  ________  __  _____
 72
    65
 73
     4
 40
20.32
 49
12.7
 74
     0
 49
-2.54
 74
     0
 49
2.54
 74
     0
 49
-2.54
 74
     0
  0
LTYPE
  5
72
330
5
100
AcDbSymbolTableRecord
100
AcDbLinetypeTableRecord
  2
DOT2
 70
     0
  3
Dot (.5x) ........................................
 72
    65
 73
     2
 40
0.635
 49
0.0
 74
     0
 49
-0.635
 74
     0
  0
ENDTAB
  0
TABLE
  2
LAYER
  5
2
330
0
100
AcDbSymbolTable
 70
     1
  0
LAYER
  5
10
330
2
100
AcDbSymbolTableRecord
100
AcDbLayerTableRecord
  2
0
 70
     0
 62
     7
  6
Continuous
370
    -3
390
F
  0
ENDTAB
  0
TABLE
  2
STYLE
  5
3
330
0
100
AcDbSymbolTable
 70
     1
  0
STYLE
  5
11
330
3
100
AcDbSymbolTableRecord
100
AcDbTextStyleTableRecord
  2
Standard
 70
     0
 40
0.0
 41
1.0
 50
0.0
 71
     0
 42
3.5
  3
txt
  4

  0
ENDTAB
  0
TABLE
  2
VIEW
  5
6
330
0
100
AcDbSymbolTable
 70
     0
  0
ENDTAB
  0
TABLE
  2
UCS
  5
7
330
0
100
AcDbSymbolTable
 70
     0
  0
ENDTAB
  0
TABLE
  2
APPID
  5
9
330
0
100
AcDbSymbolTable
 70
     1
  0
APPID
  5
12
330
9
100
AcDbSymbolTableRecord
100
AcDbRegAppTableRecord
  2
ACAD
 70
     0
  0
ENDTAB
  0
TABLE
  2
DIMSTYLE
  5
A
330
0
100
AcDbSymbolTable
 70
     1
100
AcDbDimStyleTable
  0
DIMSTYLE
105
27
330
A
100
AcDbSymbolTableRecord
100
AcDbDimStyleTableRecord
  2
ISO-25
 70
     0
 41
2.5
 42
0.625
 43
3.75
 44
1.25
 73
     0
 74
     0
 77
     1
 78
     8
140
2.5
141
2.5
143
0.0393700787
147
0.625
171
     3
172
     1
178
     0
271
     2
272
     2
274
     3
278
    44
283
     0
284
     8
340
11
  0
ENDTAB
  0
TABLE
  2
BLOCK_RECORD
  5
1
330
0
100
AcDbSymbolTable
 70
     3
  0
BLOCK_RECORD
  5
1F
330
1
100
AcDbSymbolTableRecord
100
AcDbBlockTableRecord
  2
*Model_Space
340
22
  0
BLOCK_RECORD
  5
1B
330
1
100
AcDbSymbolTableRecord
100
AcDbBlockTableRecord
  2
*Paper_Space
340
1E
  0
BLOCK_RECORD
  5
23
330
1
100
AcDbSymbolTableRecord
100
AcDbBlockTableRecord
  2
*Paper_Space0
340
26
  0
BLOCK_RECORD
  5
18C
330
1
100
AcDbSymbolTableRecord
100
AcDbBlockTableRecord
  2
*Paper_Space1
340
18D
  0
BLOCK_RECORD
  5
277
330
1
100
AcDbSymbolTableRecord
100
AcDbBlockTableRecord
  2
*Paper_Space2
340
278
  0
ENDTAB
  0
ENDSEC
  0
SECTION
  2
BLOCKS
  0
BLOCK
  5
20
330
1F
100
AcDbEntity
  8
0
100
AcDbBlockBegin
  2
*Model_Space
 70
     0
 10
0.0
 20
0.0
 30
0.0
  3
*Model_Space
  1

  0
ENDBLK
  5
21
330
1F
100
AcDbEntity
  8
0
100
AcDbBlockEnd
  0
BLOCK
  5
1C
330
1B
100
AcDbEntity
 67
     1
  8
0
100
AcDbBlockBegin
  2
*Paper_Space
 70
     0
 10
0.0
 20
0.0
 30
0.0
  3
*Paper_Space
  1

  0
ENDBLK
  5
1D
330
1B
100
AcDbEntity
 67
     1
  8
0
100
AcDbBlockEnd
  0
BLOCK
  5
24
330
23
100
AcDbEntity
  8
0
100
AcDbBlockBegin
  2
*Paper_Space0
 70
     0
 10
0.0
 20
0.0
 30
0.0
  3
*Paper_Space0
  1

  0
LINE
  5
181
330
23
100
AcDbEntity
  8
0
  6
Continuous
 62
     7
370
    25
100
AcDbLine
 10
186.0
 20
400.0
 30
0.0
 11
186.0
 21
0.0
 31
0.0
  0
LINE
  5
182
330
23
100
AcDbEntity
  8
0
  6
Continuous
 62
     7
370
    25
100
AcDbLine
 10
204.2
 20
0.0
 30
0.0
 11
-226.0
 21
0.0
 31
0.0
  0
LINE
  5
183
330
23
100
AcDbEntity
  8
0
  6
Continuous
 62
     7
370
    25
100
AcDbLine
 10
-226.0
 20
400.0
 30
0.0
 11
186.0
 21
400.0
 31
0.0
  0
LINE
  5
184
330
23
100
AcDbEntity
  8
0
  6
Continuous
 62
     7
370
    25
100
AcDbLine
 10
-226.0
 20
0.0
 30
0.0
 11
-226.0
 21
400.0
 31
0.0
  0
LINE
  5
185
330
23
100
AcDbEntity
  8
0
  6
Continuous
 62
     7
370
    25
100
AcDbLine
 10
194.5
 20
317.9
 30
0.0
 11
194.5
 21
394.5
 31
0.0
  0
LINE
  5
186
330
23
100
AcDbEntity
  8
0
  6
Continuous
 62
     7
370
    25
100
AcDbLine
 10
186.0
 20
394.5
 30
0.0
 11
204.5
 21
394.5
 31
0.0
  0
LINE
  5
187
330
23
100
AcDbEntity
  8
0
  6
Continuous
 62
     7
370
    25
100
AcDbLine
 10
204.5
 20
394.5
 30
0.0
 11
204.5
 21
317.9
 31
0.0
  0
LINE
  5
188
330
23
100
AcDbEntity
  8
0
  6
Continuous
 62
     7
370
    25
100
AcDbLine
 10
204.5
 20
317.9
 30
0.0
 11
186.0
 21
317.9
 31
0.0
  0
LINE
  5
189
330
23
100
AcDbEntity
  8
0
  6
Continuous
 62
     7
370
    25
100
AcDbLine
 10
194.2
 20
0.0
 30
0.0
 11
194.2
 21
305.0
 31
0.0
  0
LINE
  5
18A
330
23
100
AcDbEntity
  8
0
  6
Continuous
 62
     7
370
    25
100
AcDbLine
 10
186.0
 20
305.0
 30
0.0
 11
204.2
 21
305.0
 31
0.0
  0
LINE
  5
18B
330
23
100
AcDbEntity
  8
0
  6
Continuous
 62
     7
370
    25
100
AcDbLine
 10
204.2
 20
305.0
 30
0.0
 11
204.2
 21
0.0
 31
0.0
  0
VIEWPORT
  5
3F7
330
23
100
AcDbEntity
  8
0
100
AcDbViewport
 10
0.0
 20
0.0
 30
0.0
 40
205.6
 41
156.0
 68
     1
 69
     1
 12
0.0
 22
200.0
 13
0.0
 23
0.0
 14
10.0
 24
10.0
 15
10.0
 25
10.0
 16
0.0
 26
0.0
 36
1.0
 17
0.0
 27
0.0
 37
0.0
 42
50.0
 43
0.0
 44
0.0
 45
751.7955642023
 50
0.0
 51
0.0
 72
   100
 90
   557152
  1

281
     0
 71
     1
 74
     0
110
0.0
120
0.0
130
0.0
111
1.0
121
0.0
131
0.0
112
0.0
122
1.0
132
0.0
 79
     0
146
0.0
  0
ENDBLK
  5
25
330
23
100
AcDbEntity
  8
0
100
AcDbBlockEnd
  0
BLOCK
  5
18E
330
18C
100
AcDbEntity
  8
0
100
AcDbBlockBegin
  2
*Paper_Space1
 70
     0
 10
0.0
 20
0.0
 30
0.0
  3
*Paper_Space1
  1

  0
LINE
  5
217
330
18C
100
AcDbEntity
  8
0
  6
Continuous
 62
     7
370
    25
100
AcDbLine
 10
-460.6
 20
188.75
 30
0.0
 11
-442.5
 21
188.75
 31
0.0
  0
LINE
  5
218
330
18C
100
AcDbEntity
  8
0
  6
Continuous
 62
     7
370
    25
100
AcDbLine
 10
-442.5
 20
198.25
 30
0.0
 11
-460.6
 21
198.25
 31
0.0
  0
LINE
  5
219
330
18C
100
AcDbEntity
  8
0
  6
Continuous
 62
     7
370
    25
100
AcDbLine
 10
460.6
 20
198.25
 30
0.0
 11
442.5
 21
198.25
 31
0.0
  0
LINE
  5
21A
330
18C
100
AcDbEntity
  8
0
  6
Continuous
 62
     7
370
    25
100
AcDbLine
 10
442.5
 20
188.75
 30
0.0
 11
460.6
 21
188.75
 31
0.0
  0
LINE
  5
21B
330
18C
100
AcDbEntity
  8
0
  6
Continuous
 62
     7
370
    25
100
AcDbLine
 10
446.7
 20
118.0
 30
0.0
 11
446.7
 21
98.0
 31
0.0
  0
LINE
  5
21C
330
18C
100
AcDbEntity
  8
0
  6
Continuous
 62
     7
370
    25
100
AcDbLine
 10
462.7
 20
98.0
 30
0.0
 11
462.7
 21
118.0
 31
0.0
  0
LINE
  5
21D
330
18C
100
AcDbEntity
  8
0
  6
Continuous
 62
     7
370
    25
100
AcDbLine
 10
449.7
 20
98.0
 30
0.0
 11
449.7
 21
-167.8
 31
0.0
  0
LINE
  5
21E
330
18C
100
AcDbEntity
  8
0
  6
Continuous
 62
     7
370
    25
100
AcDbLine
 10
459.7
 20
98.0
 30
0.0
 11
459.7
 21
-167.8
 31
0.0
  0
LINE
  5
21F
330
18C
100
AcDbEntity
  8
0
  6
Continuous
 62
     7
370
    25
100
AcDbLine
 10
-459.3
 20
118.0
 30
0.0
 11
-459.3
 21
98.0
 31
0.0
  0
LINE
  5
220
330
18C
100
AcDbEntity
  8
0
  6
Continuous
 62
     7
370
    25
100
AcDbLine
 10
-443.3
 20
98.0
 30
0.0
 11
-443.3
 21
118.0
 31
0.0
  0
LINE
  5
221
330
18C
100
AcDbEntity
  8
0
  6
Continuous
 62
     7
370
    25
100
AcDbLine
 10
-456.3
 20
98.0
 30
0.0
 11
-456.3
 21
-167.8
 31
0.0
  0
LINE
  5
222
330
18C
100
AcDbEntity
  8
0
  6
Continuous
 62
     7
370
    25
100
AcDbLine
 10
-446.3
 20
-167.8
 30
0.0
 11
-446.3
 21
98.0
 31
0.0
  0
LINE
  5
223
330
18C
100
AcDbEntity
  8
0
  6
Continuous
 62
     7
370
    25
100
AcDbLine
 10
-414.6
 20
224.1
 30
0.0
 11
-414.6
 21
226.0
 31
0.0
  0
LINE
  5
224
330
18C
100
AcDbEntity
  8
0
  6
Continuous
 62
     7
370
    25
100
AcDbLine
 10
-414.6
 20
224.1
 30
0.0
 11
-460.6
 21
224.1
 31
0.0
  0
LINE
  5
225
330
18C
100
AcDbEntity
  8
0
  6
Continuous
 62
     7
370
    25
100
AcDbLine
 10
-460.6
 20
178.1
 30
0.0
 11
-460.6
 21
224.1
 31
0.0
  0
LINE
  5
226
330
18C
100
AcDbEntity
  8
0
  6
Continuous
 62
     7
370
    25
100
AcDbLine
 10
-462.5
 20
178.1
 30
0.0
 11
-460.6
 21
178.1
 31
0.0
  0
LINE
  5
227
330
18C
100
AcDbEntity
  8
0
  6
Continuous
 62
     7
370
    25
100
AcDbLine
 10
-414.6
 20
226.0
 30
0.0
 11
-462.5
 21
226.0
 31
0.0
  0
LINE
  5
228
330
18C
100
AcDbEntity
  8
0
  6
Continuous
 62
     7
370
    25
100
AcDbLine
 10
-467.5
 20
226.0
 30
0.0
 11
-485.7
 21
226.0
 31
0.0
  0
LINE
  5
229
330
18C
100
AcDbEntity
  8
0
  6
Continuous
 62
     7
370
    25
100
AcDbLine
 10
-467.5
 20
226.0
 30
0.0
 11
-467.5
 21
-186.0
 31
0.0
  0
LINE
  5
22A
330
18C
100
AcDbEntity
  8
0
  6
Continuous
 62
     7
370
    25
100
AcDbLine
 10
-485.7
 20
226.0
 30
0.0
 11
-485.7
 21
-194.5
 31
0.0
  0
LINE
  5
22B
330
18C
100
AcDbEntity
  8
0
  6
Continuous
 62
     7
370
    25
100
AcDbLine
 10
-464.3
 20
178.0
 30
0.0
 11
-462.5
 21
178.0
 31
0.0
  0
LINE
  5
22C
330
18C
100
AcDbEntity
  8
0
  6
Continuous
 62
     7
370
    25
100
AcDbLine
 10
-464.3
 20
209.0
 30
0.0
 11
-462.5
 21
209.0
 31
0.0
  0
LINE
  5
22D
330
18C
100
AcDbEntity
  8
0
  6
Continuous
 62
     7
370
    25
100
AcDbLine
 10
-462.5
 20
226.0
 30
0.0
 11
-462.5
 21
177.0
 31
0.0
  0
LINE
  5
22E
330
18C
100
AcDbEntity
  8
0
  6
Continuous
 62
     7
370
    25
100
AcDbLine
 10
-464.3
 20
177.0
 30
0.0
 11
-464.3
 21
210.0
 31
0.0
  0
LINE
  5
22F
330
18C
100
AcDbEntity
  8
0
  6
Continuous
 62
     7
370
    25
100
AcDbLine
 10
-465.5
 20
211.2
 30
0.0
 11
-467.5
 21
211.2
 31
0.0
  0
LINE
  5
230
330
18C
100
AcDbEntity
  8
0
  6
Continuous
 62
     7
370
    25
100
AcDbLine
 10
-467.5
 20
213.0
 30
0.0
 11
-465.5
 21
213.0
 31
0.0
  0
LINE
  5
231
330
18C
100
AcDbEntity
  8
0
  6
Continuous
 62
     7
370
    25
100
AcDbLine
 10
-467.5
 20
174.0
 30
0.0
 11
-465.5
 21
174.0
 31
0.0
  0
LINE
  5
232
330
18C
100
AcDbEntity
  8
0
  6
Continuous
 62
     7
370
    25
100
AcDbLine
 10
-467.5
 20
175.8
 30
0.0
 11
-465.5
 21
175.8
 31
0.0
  0
LINE
  5
233
330
18C
100
AcDbEntity
  8
0
  6
Continuous
 62
     7
370
    25
100
AcDbLine
 10
-442.5
 20
198.25
 30
0.0
 11
-442.5
 21
188.75
 31
0.0
  0
LINE
  5
234
330
18C
100
AcDbEntity
  8
0
  6
Continuous
 62
     7
370
    25
100
AcDbLine
 10
464.3
 20
209.0
 30
0.0
 11
462.5
 21
209.0
 31
0.0
  0
LINE
  5
235
330
18C
100
AcDbEntity
  8
0
  6
Continuous
 62
     7
370
    25
100
AcDbLine
 10
464.3
 20
177.0
 30
0.0
 11
464.3
 21
210.0
 31
0.0
  0
LINE
  5
236
330
18C
100
AcDbEntity
  8
0
  6
Continuous
 62
     7
370
    25
100
AcDbLine
 10
464.3
 20
178.0
 30
0.0
 11
462.5
 21
178.0
 31
0.0
  0
LINE
  5
237
330
18C
100
AcDbEntity
  8
0
  6
Continuous
 62
     7
370
    25
100
AcDbLine
 10
462.5
 20
226.0
 30
0.0
 11
462.5
 21
177.0
 31
0.0
  0
LINE
  5
238
330
18C
100
AcDbEntity
  8
0
  6
Continuous
 62
     7
370
    25
100
AcDbLine
 10
467.5
 20
174.0
 30
0.0
 11
465.5
 21
174.0
 31
0.0
  0
LINE
  5
239
330
18C
100
AcDbEntity
  8
0
  6
Continuous
 62
     7
370
    25
100
AcDbLine
 10
465.5
 20
175.8
 30
0.0
 11
467.5
 21
175.8
 31
0.0
  0
LINE
  5
23A
330
18C
100
AcDbEntity
  8
0
  6
Continuous
 62
     7
370
    25
100
AcDbLine
 10
467.5
 20
211.2
 30
0.0
 11
465.5
 21
211.2
 31
0.0
  0
LINE
  5
23B
330
18C
100
AcDbEntity
  8
0
  6
Continuous
 62
     7
370
    25
100
AcDbLine
 10
467.5
 20
213.0
 30
0.0
 11
465.5
 21
213.0
 31
0.0
  0
LINE
  5
23C
330
18C
100
AcDbEntity
  8
0
  6
Continuous
 62
     7
370
    25
100
AcDbLine
 10
442.5
 20
188.75
 30
0.0
 11
442.5
 21
198.25
 31
0.0
  0
LINE
  5
23D
330
18C
100
AcDbEntity
  8
0
  6
Continuous
 62
     7
370
    25
100
AcDbLine
 10
467.5
 20
186.0
 30
0.0
 11
464.3
 21
186.0
 31
0.0
  0
LINE
  5
23E
330
18C
100
AcDbEntity
  8
0
  6
Continuous
 62
     7
370
    25
100
AcDbLine
 10
460.6
 20
186.0
 30
0.0
 11
-460.6
 21
186.0
 31
0.0
  0
LINE
  5
23F
330
18C
100
AcDbEntity
  8
0
  6
Continuous
 62
     7
370
    25
100
AcDbLine
 10
-464.3
 20
186.0
 30
0.0
 11
-467.5
 21
186.0
 31
0.0
  0
LINE
  5
240
330
18C
100
AcDbEntity
  8
0
  6
Continuous
 62
     7
370
    25
100
AcDbLine
 10
-485.7
 20
-186.0
 30
0.0
 11
485.7
 21
-186.0
 31
0.0
  0
LINE
  5
241
330
18C
100
AcDbEntity
  8
0
  6
Continuous
 62
     7
370
    25
100
AcDbLine
 10
467.5
 20
226.0
 30
0.0
 11
485.7
 21
226.0
 31
0.0
  0
LINE
  5
242
330
18C
100
AcDbEntity
  8
0
  6
Continuous
 62
     7
370
    25
100
AcDbLine
 10
467.5
 20
226.0
 30
0.0
 11
467.5
 21
-186.0
 31
0.0
  0
LINE
  5
243
330
18C
100
AcDbEntity
  8
0
  6
Continuous
 62
     7
370
    25
100
AcDbLine
 10
485.7
 20
226.0
 30
0.0
 11
485.7
 21
-194.2
 31
0.0
  0
LINE
  5
244
330
18C
100
AcDbEntity
  8
0
  6
Continuous
 62
     7
370
    25
100
AcDbLine
 10
484.3
 20
-186.0
 30
0.0
 11
484.3
 21
-194.5
 31
0.0
  0
LINE
  5
245
330
18C
100
AcDbEntity
  8
0
  6
Continuous
 62
     7
370
    25
100
AcDbLine
 10
-475.7
 20
-204.5
 30
0.0
 11
474.3
 21
-204.5
 31
0.0
  0
LINE
  5
246
330
18C
100
AcDbEntity
  8
0
  6
Continuous
 62
     7
370
    25
100
AcDbLine
 10
460.6
 20
224.1
 30
0.0
 11
414.6
 21
224.1
 31
0.0
  0
LINE
  5
247
330
18C
100
AcDbEntity
  8
0
  6
Continuous
 62
     7
370
    25
100
AcDbLine
 10
414.6
 20
224.1
 30
0.0
 11
414.6
 21
226.0
 31
0.0
  0
LINE
  5
248
330
18C
100
AcDbEntity
  8
0
  6
Continuous
 62
     7
370
    25
100
AcDbLine
 10
462.5
 20
226.0
 30
0.0
 11
414.6
 21
226.0
 31
0.0
  0
LINE
  5
249
330
18C
100
AcDbEntity
  8
0
  6
Continuous
 62
     7
370
    25
100
AcDbLine
 10
460.6
 20
178.1
 30
0.0
 11
460.6
 21
224.1
 31
0.0
  0
LINE
  5
24A
330
18C
100
AcDbEntity
  8
0
  6
Continuous
 62
     7
370
    25
100
AcDbLine
 10
460.6
 20
178.1
 30
0.0
 11
462.5
 21
178.1
 31
0.0
  0
LINE
  5
24B
330
18C
100
AcDbEntity
  8
0
  6
Continuous
 62
     7
370
    25
100
AcDbLine
 10
446.7
 20
118.0
 30
0.0
 11
462.7
 21
118.0
 31
0.0
  0
LINE
  5
24C
330
18C
100
AcDbEntity
  8
0
  6
Continuous
 62
     7
370
    25
100
AcDbLine
 10
446.7
 20
98.0
 30
0.0
 11
462.7
 21
98.0
 31
0.0
  0
LINE
  5
24D
330
18C
100
AcDbEntity
  8
0
  6
Continuous
 62
     7
370
    25
100
AcDbLine
 10
452.7
 20
118.0
 30
0.0
 11
452.7
 21
124.0
 31
0.0
  0
LINE
  5
24E
330
18C
100
AcDbEntity
  8
0
  6
Continuous
 62
     7
370
    25
100
AcDbLine
 10
459.7
 20
124.0
 30
0.0
 11
425.7999687854
 21
124.0
 31
0.0
  0
LINE
  5
24F
330
18C
100
AcDbEntity
  8
0
  6
Continuous
 62
     7
370
    25
100
AcDbLine
 10
425.7999687854
 20
125.5
 30
0.0
 11
406.7999687854
 21
125.5
 31
0.0
  0
LINE
  5
250
330
18C
100
AcDbEntity
  8
0
  6
Continuous
 62
     7
370
    25
100
AcDbLine
 10
424.7
 20
-167.8
 30
0.0
 11
424.7
 21
124.0
 31
0.0
  0
LINE
  5
251
330
18C
100
AcDbEntity
  8
0
  6
Continuous
 62
     7
370
    25
100
AcDbLine
 10
406.7999687854
 20
125.5
 30
0.0
 11
406.7999687854
 21
124.0
 31
0.0
  0
LINE
  5
252
330
18C
100
AcDbEntity
  8
0
  6
Continuous
 62
     7
370
    25
100
AcDbLine
 10
425.7999687854
 20
124.0
 30
0.0
 11
425.7999687854
 21
125.5
 31
0.0
  0
LINE
  5
253
330
18C
100
AcDbEntity
  8
0
  6
Continuous
 62
     7
370
    25
100
AcDbLine
 10
445.7
 20
108.0
 30
0.0
 11
445.7
 21
-167.8
 31
0.0
  0
LINE
  5
254
330
18C
100
AcDbEntity
  8
0
  6
Continuous
 62
     7
370
    25
100
AcDbLine
 10
459.7
 20
124.0
 30
0.0
 11
459.7
 21
118.0
 31
0.0
  0
LINE
  5
255
330
18C
100
AcDbEntity
  8
0
  6
Continuous
 62
     7
370
    25
100
AcDbLine
 10
-443.3
 20
118.0
 30
0.0
 11
-459.3
 21
118.0
 31
0.0
  0
LINE
  5
256
330
18C
100
AcDbEntity
  8
0
  6
Continuous
 62
     7
370
    25
100
AcDbLine
 10
-443.3
 20
98.0
 30
0.0
 11
-459.3
 21
98.0
 31
0.0
  0
LINE
  5
257
330
18C
100
AcDbEntity
  8
0
  6
Continuous
 62
     7
370
    25
100
AcDbLine
 10
-456.3
 20
124.0
 30
0.0
 11
-422.3999687854
 21
124.0
 31
0.0
  0
LINE
  5
258
330
18C
100
AcDbEntity
  8
0
  6
Continuous
 62
     7
370
    25
100
AcDbLine
 10
-422.3999687854
 20
124.0
 30
0.0
 11
-422.3999687854
 21
125.5
 31
0.0
  0
LINE
  5
259
330
18C
100
AcDbEntity
  8
0
  6
Continuous
 62
     7
370
    25
100
AcDbLine
 10
-422.3999687854
 20
125.5
 30
0.0
 11
-403.3999687854
 21
125.5
 31
0.0
  0
LINE
  5
25A
330
18C
100
AcDbEntity
  8
0
  6
Continuous
 62
     7
370
    25
100
AcDbLine
 10
-421.3
 20
-167.8
 30
0.0
 11
-421.3
 21
124.0
 31
0.0
  0
LINE
  5
25B
330
18C
100
AcDbEntity
  8
0
  6
Continuous
 62
     7
370
    25
100
AcDbLine
 10
-449.3
 20
118.0
 30
0.0
 11
-449.3
 21
124.0
 31
0.0
  0
LINE
  5
25C
330
18C
100
AcDbEntity
  8
0
  6
Continuous
 62
     7
370
    25
100
AcDbLine
 10
-403.3999687854
 20
125.5
 30
0.0
 11
-403.3999687854
 21
124.0
 31
0.0
  0
LINE
  5
25D
330
18C
100
AcDbEntity
  8
0
  6
Continuous
 62
     7
370
    25
100
AcDbLine
 10
-442.3
 20
108.0
 30
0.0
 11
-442.3
 21
-167.8
 31
0.0
  0
LINE
  5
25E
330
18C
100
AcDbEntity
  8
0
  6
Continuous
 62
     7
370
    25
100
AcDbLine
 10
-456.3
 20
124.0
 30
0.0
 11
-456.3
 21
118.0
 31
0.0
  0
LINE
  5
25F
330
18C
100
AcDbEntity
  8
0
  6
Continuous
 62
     7
370
    25
100
AcDbLine
 10
-221.3
 20
108.0
 30
0.0
 11
-221.3
 21
124.0
 31
0.0
  0
LINE
  5
260
330
18C
100
AcDbEntity
  8
0
  6
Continuous
 62
     7
370
    25
100
AcDbLine
 10
224.7
 20
108.0
 30
0.0
 11
224.7
 21
124.0
 31
0.0
  0
LINE
  5
261
330
18C
100
AcDbEntity
  8
0
  6
Continuous
 62
     7
370
    25
100
AcDbLine
 10
446.7
 20
108.0
 30
0.0
 11
-443.3
 21
108.0
 31
0.0
  0
LINE
  5
262
330
18C
100
AcDbEntity
  8
0
  6
Continuous
 62
     7
370
    25
100
AcDbLine
 10
114.7
 20
108.0
 30
0.0
 11
114.7
 21
124.0
 31
0.0
  0
LINE
  5
263
330
18C
100
AcDbEntity
  8
0
  6
Continuous
 62
     7
370
    25
100
AcDbLine
 10
424.7
 20
124.0
 30
0.0
 11
-421.3
 21
124.0
 31
0.0
  0
LINE
  5
264
330
18C
100
AcDbEntity
  8
0
  6
Continuous
 62
     7
370
    25
100
AcDbLine
 10
-111.3
 20
108.0
 30
0.0
 11
-111.3
 21
124.0
 31
0.0
  0
LINE
  5
265
330
18C
100
AcDbEntity
  8
0
  6
Continuous
 62
     7
370
    25
100
AcDbLine
 10
-41.3
 20
108.0
 30
0.0
 11
-41.3
 21
124.0
 31
0.0
  0
LINE
  5
266
330
18C
100
AcDbEntity
  8
0
  6
Continuous
 62
     7
370
    25
100
AcDbLine
 10
44.7
 20
108.0
 30
0.0
 11
44.7
 21
124.0
 31
0.0
  0
LINE
  5
267
330
18C
100
AcDbEntity
  8
0
  6
Continuous
 62
     7
370
    25
100
AcDbLine
 10
467.5
 20
-167.8
 30
0.0
 11
-467.5
 21
-167.8
 31
0.0
  0
LINE
  5
268
330
18C
100
AcDbEntity
  8
0
  6
Continuous
 62
     8
370
    25
100
AcDbLine
 10
439.3851814027
 20
108.0
 30
0.0
 11
439.3851814027
 21
-167.8
 31
0.0
  0
LINE
  5
269
330
18C
100
AcDbEntity
  8
0
  6
Continuous
 62
     8
370
    25
100
AcDbLine
 10
426.4618721488
 20
108.0
 30
0.0
 11
426.4618721488
 21
-167.8
 31
0.0
  0
LINE
  5
26A
330
18C
100
AcDbEntity
  8
0
  6
Continuous
 62
     8
370
    25
100
AcDbLine
 10
-435.9851814027
 20
108.0
 30
0.0
 11
-435.9851814027
 21
-167.8
 31
0.0
  0
LINE
  5
26B
330
18C
100
AcDbEntity
  8
0
  6
Continuous
 62
     8
370
    25
100
AcDbLine
 10
-423.0618721488
 20
108.0
 30
0.0
 11
-423.0618721488
 21
-167.8
 31
0.0
  0
ARC
  5
26C
330
18C
100
AcDbEntity
  8
0
  6
Continuous
 62
     7
370
    25
100
AcDbCircle
 10
-465.5
 20
210.0
 30
0.0
 40
1.199999999999989
100
AcDbArc
 50
0.0
 51
90.0
  0
ARC
  5
26D
330
18C
100
AcDbEntity
  8
0
  6
Continuous
 62
     7
370
    25
100
AcDbCircle
 10
-465.5
 20
210.0
 30
0.0
 40
3.000000000000057
100
AcDbArc
 50
0.0
 51
90.0
  0
ARC
  5
26E
330
18C
100
AcDbEntity
  8
0
  6
Continuous
 62
     7
370
    25
100
AcDbCircle
 10
-465.5
 20
177.0
 30
0.0
 40
3.000000000000057
100
AcDbArc
 50
270.0
 51
0.0
  0
ARC
  5
26F
330
18C
100
AcDbEntity
  8
0
  6
Continuous
 62
     7
370
    25
100
AcDbCircle
 10
-465.5
 20
177.0
 30
0.0
 40
1.199999999999932
100
AcDbArc
 50
270.0
 51
0.0
  0
ARC
  5
270
330
18C
100
AcDbEntity
  8
0
  6
Continuous
 62
     7
370
    25
100
AcDbCircle
 10
465.5
 20
177.0
 30
0.0
 40
3.0
100
AcDbArc
 50
180.0
 51
270.0
  0
ARC
  5
271
330
18C
100
AcDbEntity
  8
0
  6
Continuous
 62
     7
370
    25
100
AcDbCircle
 10
465.5
 20
177.0
 30
0.0
 40
1.200000000000045
100
AcDbArc
 50
180.0
 51
270.0
  0
ARC
  5
272
330
18C
100
AcDbEntity
  8
0
  6
Continuous
 62
     7
370
    25
100
AcDbCircle
 10
465.5
 20
210.0
 30
0.0
 40
3.000000000000057
100
AcDbArc
 50
90.0
 51
180.0
  0
ARC
  5
273
330
18C
100
AcDbEntity
  8
0
  6
Continuous
 62
     7
370
    25
100
AcDbCircle
 10
465.5
 20
210.0
 30
0.0
 40
1.19999999999996
100
AcDbArc
 50
90.0
 51
180.0
  0
ARC
  5
274
330
18C
100
AcDbEntity
  8
0
  6
Continuous
 62
     7
370
    25
100
AcDbCircle
 10
474.3
 20
-194.5
 30
0.0
 40
10.00000000000003
100
AcDbArc
 50
270.0
 51
0.0
  0
ARC
  5
275
330
18C
100
AcDbEntity
  8
0
  6
Continuous
 62
     7
370
    25
100
AcDbCircle
 10
-475.7
 20
-194.5
 30
0.0
 40
10.00000000000006
100
AcDbArc
 50
180.0
 51
270.0
  0
ARC
  5
276
330
18C
100
AcDbEntity
  8
0
  6
Continuous
 62
     7
370
    25
100
AcDbCircle
 10
475.7
 20
-194.2
 30
0.0
 40
10.00000000000028
100
AcDbArc
 50
277.9894917959
 51
0.0
  0
VIEWPORT
  5
3F9
330
18C
100
AcDbEntity
  8
0
100
AcDbViewport
 10
0.0
 20
0.0
 30
0.0
 40
205.6
 41
156.0
 68
     1
 69
     1
 12
0.0
 22
200.0
 13
0.0
 23
0.0
 14
10.0
 24
10.0
 15
10.0
 25
10.0
 16
0.0
 26
0.0
 36
1.0
 17
0.0
 27
0.0
 37
0.0
 42
50.0
 43
0.0
 44
0.0
 45
751.7955642023
 50
0.0
 51
0.0
 72
   100
 90
   557152
  1

281
     0
 71
     1
 74
     0
110
0.0
120
0.0
130
0.0
111
1.0
121
0.0
131
0.0
112
0.0
122
1.0
132
0.0
 79
     0
146
0.0
  0
ENDBLK
  5
18F
330
18C
100
AcDbEntity
  8
0
100
AcDbBlockEnd
  0
BLOCK
  5
279
330
277
100
AcDbEntity
  8
0
100
AcDbBlockBegin
  2
*Paper_Space2
 70
     0
 10
0.0
 20
0.0
 30
0.0
  3
*Paper_Space2
  1

  0
LWPOLYLINE
  5
28F
330
277
100
AcDbEntity
  8
0
  6
Continuous
 62
     7
370
    25
100
AcDbPolyline
 90
       10
 70
   128
 43
0.0
 10
-145.3104435338
 20
451.978632126
 10
-144.5849092459
 20
451.707520406
 10
-143.9468851008
 20
451.764569379
 10
-143.4733262267
 20
452.1428980968
 10
-143.2213508129
 20
452.7968745325
 10
-143.2213508129
 20
453.6476194763
 10
-143.4733262267
 20
454.5925205324
 10
-143.9468851008
 20
455.5176086881
 10
-144.5849092459
 20
456.311304659
 10
-145.3104435338
 20
456.8778769973
  0
LWPOLYLINE
  5
291
330
277
100
AcDbEntity
  8
0
  6
Continuous
 62
     7
370
    25
100
AcDbPolyline
 90
       10
 70
   128
 43
0.0
 10
-156.6241520328
 20
463.4091418919
 10
-157.3496863208
 20
463.6802536118
 10
-157.9877104658
 20
463.6232046389
 10
-158.4612693399
 20
463.2448759211
 10
-158.7132447538
 20
462.5908994854
 10
-158.7132447538
 20
461.7401545415
 10
-158.4612693399
 20
460.7952534854
 10
-157.9877104658
 20
459.8701653297
 10
-157.3496863208
 20
459.0764693588
 10
-156.6241520328
 20
458.5098970206
  0
LWPOLYLINE
  5
293
330
277
100
AcDbEntity
  8
0
  6
Continuous
 62
     7
370
    25
100
AcDbPolyline
 90
       10
 70
   128
 43
0.0
 10
-153.0886181269
 20
480.9651010976
 10
-152.9606868565
 20
480.0534277307
 10
-152.5923234446
 20
479.1040093259
 10
-152.0279579551
 20
478.2313597548
 10
-151.3356611952
 20
477.5407334345
 10
-150.5989343714
 20
477.115430092
 10
-149.9066376115
 20
477.006747587
 10
-149.3422721221
 20
477.2277946337
 10
-148.9739087102
 20
477.751909696
 10
-148.8459774398
 20
478.5158767621
  0
LWPOLYLINE
  5
295
330
277
100
AcDbEntity
  8
0
  6
Continuous
 62
     7
370
    25
100
AcDbPolyline
 90
       10
 70
   128
 43
0.0
 10
-148.8459774398
 20
486.681284881
 10
-148.9739087102
 20
487.5929582479
 10
-149.3422721221
 20
488.5423766527
 10
-149.9066376115
 20
489.4150262238
 10
-150.5989343714
 20
490.105652544
 10
-151.3356611952
 20
490.5309558866
 10
-152.0279579551
 20
490.6396383915
 10
-152.5923234446
 20
490.4185913448
 10
-152.9606868565
 20
489.8944762826
 10
-153.0886181269
 20
489.1305092164
  0
LWPOLYLINE
  5
297
330
277
100
AcDbEntity
  8
0
  6
Continuous
 62
     7
370
    25
100
AcDbPolyline
 90
       10
 70
   128
 43
0.0
 10
-145.3104435338
 20
504.2372440867
 10
-144.5849092459
 20
503.9661323667
 10
-143.9468851008
 20
504.0231813397
 10
-143.4733262267
 20
504.4015100575
 10
-143.2213508129
 20
505.0554864932
 10
-143.2213508129
 20
505.906231437
 10
-143.4733262267
 20
506.8511324931
 10
-143.9468851008
 20
507.7762206488
 10
-144.5849092459
 20
508.5699166197
 10
-145.3104435338
 20
509.136488958
  0
LWPOLYLINE
  5
299
330
277
100
AcDbEntity
  8
0
  6
Continuous
 62
     7
370
    25
100
AcDbPolyline
 90
       10
 70
   128
 43
0.0
 10
-156.6241520328
 20
515.6677538526
 10
-157.3496863208
 20
515.9388655725
 10
-157.9877104658
 20
515.8818165996
 10
-158.4612693399
 20
515.5034878818
 10
-158.7132447538
 20
514.849511446
 10
-158.7132447538
 20
513.9987665022
 10
-158.4612693399
 20
513.0538654461
 10
-157.9877104658
 20
512.1287772904
 10
-157.3496863208
 20
511.3350813195
 10
-156.6241520328
 20
510.7685089812
  0
LWPOLYLINE
  5
29C
330
277
100
AcDbEntity
  8
0
  6
Continuous
 62
     7
370
    25
100
AcDbPolyline
 90
       12
 70
   128
 43
0.0
 10
-190.5652775298
 20
459.327632133
 10
-190.4220635646
 20
458.2600771418
 10
-190.0040240127
 20
457.4443604317
 10
-189.3450259524
 20
456.9465665192
 10
-188.4984574873
 20
456.8070237066
 10
-187.5329025599
 20
457.0370369227
 10
-186.5265846878
 20
457.6179718647
 10
-185.5610297603
 20
458.5027646385
 10
-184.7144612953
 20
459.6197345957
 10
-184.055463235
 20
460.8783914732
 10
-183.6374236831
 20
462.1767663763
 10
-183.4942097179
 20
463.4096726921
  0
LWPOLYLINE
  5
29F
330
277
100
AcDbEntity
  8
0
  6
Continuous
 62
     7
370
    25
100
AcDbPolyline
 90
       12
 70
   128
 43
0.0
 10
-183.4942097179
 20
504.2367132864
 10
-183.6374236831
 20
505.3042682776
 10
-184.055463235
 20
506.1199849877
 10
-184.7144612953
 20
506.6177789003
 10
-185.5610297603
 20
506.7573217128
 10
-186.5265846878
 20
506.5273084967
 10
-187.5329025599
 20
505.9463735547
 10
-188.4984574873
 20
505.0615807809
 10
-189.3450259524
 20
503.9446108237
 10
-190.0040240127
 20
502.6859539462
 10
-190.4220635646
 20
501.3875790431
 10
-190.5652775298
 20
500.1546727273
  0
LWPOLYLINE
  5
2AD
330
277
100
AcDbEntity
  8
0
  6
Continuous
 62
     7
370
    25
100
AcDbPolyline
 90
        3
 70
   128
 43
0.0
 10
-184.8377126022
 20
505.0123009926
 10
-184.9809265674
 20
506.0798559838
 10
-185.2936161535
 20
506.7545074136
  0
LWPOLYLINE
  5
2BD
330
277
100
AcDbEntity
  8
0
  6
Continuous
 62
     7
370
    25
100
AcDbPolyline
 90
        9
 70
   128
 43
0.0
 10
-190.1093739784
 20
457.5854257121
 10
-189.8419603716
 20
457.5826114128
 10
-188.8764054441
 20
457.8126246289
 10
-187.8700875721
 20
458.3935595709
 10
-186.9045326446
 20
459.2783523448
 10
-186.0579641796
 20
460.3953223019
 10
-185.3989661193
 20
461.6539791794
 10
-184.9809265674
 20
462.9523540826
 10
-184.8377126022
 20
464.1852603984
  0
LWPOLYLINE
  5
2E0
330
277
100
AcDbEntity
  8
0
  6
Continuous
 62
     7
370
    25
100
AcDbPolyline
 90
        8
 70
   128
 43
0.0
 10
-192.1964957786
 20
482.8821742388
 10
-192.666424704
 20
482.1292734713
 10
-193.1939150187
 20
480.9618243575
 10
-193.5002298785
 20
479.7897167815
 10
-193.5626513115
 20
478.6998806002
 10
-193.3765498056
 20
477.7731439775
 10
-192.9557276582
 20
477.0782387291
 10
-192.5865311292
 20
476.7852804837
  0
LWPOLYLINE
  5
2EE
330
277
100
AcDbEntity
  8
0
  6
Continuous
 62
     7
370
    25
100
AcDbPolyline
 90
       24
 70
   128
 43
0.0
 10
-176.0695885154
 20
468.8563626053
 10
-175.1634066649
 20
469.523318107
 10
-174.3244321767
 20
470.428464279
 10
-173.6148879506
 20
471.5046705706
 10
-173.0873976359
 20
472.6721196844
 10
-172.7810827761
 20
473.8442272604
 10
-172.7186613431
 20
474.9340634417
 10
-172.904762849
 20
475.8608000644
 10
-173.3255849964
 20
476.5557053127
 10
-173.9499173319
 20
476.9672412435
 10
-174.7314559822
 20
477.0648861192
 10
-175.6122378009
 20
476.8413980662
 10
-176.5269392299
 20
476.313352171
 10
-177.4077210487
 20
475.519911182
 10
-178.189259699
 20
474.5199209876
 10
-178.8135920345
 20
473.3875462858
 10
-179.2344141819
 20
472.2067701281
 10
-179.4205156878
 20
471.0651652803
 10
-179.3580942548
 20
470.0473993515
 10
-179.051779395
 20
469.2289553847
 10
-178.5242890803
 20
468.6705336247
 10
-177.8147448542
 20
468.413549659
 10
-176.975770366
 20
468.4770628125
 10
-176.0695885154
 20
468.8563626053
  0
LWPOLYLINE
  5
2FA
330
277
100
AcDbEntity
  8
0
  6
Continuous
 62
     7
370
    25
100
AcDbPolyline
 90
        9
 70
   128
 43
0.0
 10
-480.9740325631
 20
440.9943713703
 10
-482.2176608742
 20
440.1195694984
 10
-483.1417600763
 20
439.1215152424
 10
-483.7108175553
 20
438.0385632677
 10
-483.9029647512
 20
436.9123308112
 10
-483.7108175553
 20
435.7860983547
 10
-483.1417600763
 20
434.70314638
 10
-482.2176608742
 20
433.705092124
 10
-480.9740325631
 20
432.8302902521
  0
LWPOLYLINE
  5
30B
330
277
100
AcDbEntity
  8
0
  6
Continuous
 62
     7
370
    25
100
AcDbPolyline
 90
       10
 70
   128
 43
0.0
 10
-252.3206226248
 20
395.5393282546
 10
-251.8596986249
 20
395.7215464736
 10
-251.0048040164
 20
395.7395525142
 10
-250.0620991595
 20
395.4215544263
 10
-249.1015001607
 20
394.7911366734
 10
-248.1942502534
 20
393.8950544563
 10
-247.4076360128
 20
392.7997660937
 10
-246.7999970185
 20
391.5865041128
 10
-246.4163990752
 20
390.3452506046
 10
-246.2852918873
 20
389.1680636632
  0
LWPOLYLINE
  5
319
330
277
100
AcDbEntity
  8
0
  6
Continuous
 62
     7
370
    25
100
AcDbPolyline
 90
       17
 70
   128
 43
0.0
 10
-244.1639715437
 20
387.9434514955
 10
-244.2962256525
 20
389.4240572696
 10
-244.6868039237
 20
390.988128907
 10
-245.3174433515
 20
392.5625321564
 10
-246.1586559371
 20
394.0736496715
 10
-247.1711075149
 20
395.4508232769
 10
-248.3074569745
 20
396.6296578653
 10
-249.5145698781
 20
397.5550324417
 10
-250.7360029679
 20
398.1836775193
 10
-251.9146433901
 20
398.486198353
 10
-252.9953792287
 20
398.4484494047
 10
-253.9276764768
 20
398.0721957735
 10
-254.6679419514
 20
397.3750306608
 10
-255.1815616617
 20
396.3895527326
 10
-255.4445193207
 20
395.1618418414
 10
-255.4445193207
 20
393.749304384
 10
-255.4433753606
 20
393.7366014724
  0
LWPOLYLINE
  5
31A
330
277
100
AcDbEntity
  8
0
  6
Continuous
 62
     7
370
    25
100
AcDbPolyline
 90
        9
 70
   128
 43
0.0
 10
-250.4437816975
 20
385.0761128486
 10
-249.5145698781
 20
384.5095398907
 10
-248.3074569745
 20
384.0412115744
 10
-247.1711075149
 20
383.9080450035
 10
-246.1586559371
 20
384.116266899
 10
-245.3174433515
 20
384.6561410363
 10
-244.6868039237
 20
385.5024235008
 10
-244.2962256525
 20
386.6155430651
 10
-244.1639715437
 20
387.9434514955
  0
LWPOLYLINE
  5
31B
330
277
100
AcDbEntity
  8
0
  6
Continuous
 62
     7
370
    25
100
AcDbPolyline
 90
       16
 70
   128
 43
0.0
 10
-231.5707709882
 20
392.51073933
 10
-230.8445113411
 20
393.1899809354
 10
-230.3346394531
 20
394.1459945437
 10
-230.0639782355
 20
395.335987025
 10
-230.0446430397
 20
396.7066918753
 10
-230.2774993485
 20
398.1967535342
 10
-230.7521240361
 20
399.7394737858
 10
-231.447271928
 20
401.2657973076
 10
-232.3318267788
 20
402.7074027284
 10
-233.3661940993
 20
403.9997608327
 10
-234.5040734866
 20
405.0850230214
 10
-235.6945311258
 20
405.914610733
 10
-236.8842796913
 20
406.4513899202
 10
-238.0200635972
 20
406.6713332455
 10
-239.0510428264
 20
406.5645955946
 10
-239.6783651
 20
406.30155596
  0
LWPOLYLINE
  5
31F
330
277
100
AcDbEntity
  8
0
  6
Continuous
 62
     7
370
    25
100
AcDbPolyline
 90
       19
 70
   128
 43
0.0
 10
-2.3334523779
 20
207.1010263729
 10
-5.4405911627
 20
213.4304987622
 10
-8.745868016
 20
219.6835767679
 10
-12.2405128727
 20
225.8436687689
 10
-15.9152532076
 20
231.8944298685
 10
-19.7603386384
 20
237.8198052636
 10
-23.7655667976
 20
243.6040728435
 10
-27.9203104023
 20
249.2318849064
 10
-32.2135454523
 20
254.6883088821
 10
-36.6338804811
 20
259.9588669535
 10
-41.1695867808
 20
265.0295744711
 10
-45.808629523
 20
269.8869770597
 10
-50.5386996913
 20
274.518186317
 10
-55.3472467412
 20
278.9109140117
 10
-60.2215119017
 20
283.053504688
 10
-65.1485620282
 20
286.9349665917
 10
-70.1153239191
 20
290.5450008356
 10
-75.1086190035
 20
293.8740287257
 10
-80.1151983084
 20
296.9132171769
  0
LWPOLYLINE
  5
320
330
277
100
AcDbEntity
  8
0
  6
Continuous
 62
     7
370
    25
100
AcDbPolyline
 90
       15
 70
   128
 43
0.0
 10
47.1640223051
 20
149.9478140431
 10
43.0689135254
 20
152.4685368821
 10
38.991763931
 20
155.29153876
 10
34.9504539467
 20
158.404439343
 10
30.962706822
 20
161.7935869405
 10
27.0460109054
 20
165.4441183746
 10
23.2175429489
 20
169.3400241635
 10
19.4940927787
 20
173.4642187307
 10
15.8919896635
 20
177.7986153347
 10
12.4270307019
 20
182.3242053884
 10
9.114411544
 20
187.021141822
 10
5.9686597504
 20
191.8688261224
 10
3.0035710814
 20
196.8459986687
 10
0.2321489955
 20
201.9308319665
 10
-2.3334523779
 20
207.1010263729
  0
LWPOLYLINE
  5
322
330
277
100
AcDbEntity
  8
0
  6
Continuous
 62
     7
370
    25
100
AcDbPolyline
 90
       15
 70
   128
 43
0.0
 10
157.4726801702
 20
114.8469097369
 10
154.9070787969
 20
112.6388956244
 10
152.1356567109
 20
110.7538781571
 10
149.1705680419
 20
109.2001241185
 10
146.0248162483
 20
107.9844475296
 10
142.7121970904
 20
107.1121797654
 10
139.2472381288
 20
106.5871461744
 10
135.6451350137
 20
106.4116493026
 10
131.9216848435
 20
106.586458795
 10
128.0932168869
 20
107.1108080209
 10
124.1765209704
 20
107.982397436
 10
120.1887738457
 20
109.1974046665
 10
116.1474638613
 20
110.7505012729
 10
112.0703142669
 20
112.6348761174
 10
107.9752054872
 20
114.8422652347
  0
LWPOLYLINE
  5
323
330
277
100
AcDbEntity
  8
0
  6
Continuous
 62
     7
370
    25
100
AcDbPolyline
 90
       19
 70
   128
 43
0.0
 10
235.2544261008
 20
114.8542082404
 10
230.2478467958
 20
117.5954932139
 10
225.2545517115
 20
120.0316011138
 10
220.2877898206
 20
122.1560680869
 10
215.360739694
 20
123.9632571729
 10
210.4864745336
 20
125.4483732618
 10
205.6779274836
 20
126.607475817
 10
200.9478573154
 20
127.4374893305
 10
196.3088145732
 20
127.9362114837
 10
191.7731082734
 20
128.102318991
 10
187.3527732447
 20
127.9353711105
 10
183.0595381946
 20
127.4358108138
 10
178.90479459
 20
126.6049636105
 10
174.8995664308
 20
125.4450340314
 10
171.0544809999
 20
123.9590997786
 10
167.3797406651
 20
122.1511035599
 10
163.8850958083
 20
120.0258426267
 10
160.579818955
 20
117.5889560459
 10
157.4726801702
 20
114.8469097369
  0
LWPOLYLINE
  5
328
330
277
100
AcDbEntity
  8
0
  6
Continuous
 62
     7
370
    25
100
AcDbPolyline
 90
       17
 70
   128
 43
0.0
 10
246.5681345997
 20
121.385473135
 10
241.5615552948
 20
124.1267581085
 10
236.5682602104
 20
126.5628660084
 10
231.6014983195
 20
128.6873329815
 10
226.674448193
 20
130.4945220675
 10
221.8001830326
 20
131.9796381564
 10
216.9916359826
 20
133.1387407115
 10
212.2615658144
 20
133.968754225
 10
207.6225230721
 20
134.4674763783
 10
203.0868167724
 20
134.6335838856
 10
198.6664817437
 20
134.466636005
 10
194.3732466936
 20
133.9670757083
 10
190.2185030889
 20
133.1362285051
 10
186.2132749298
 20
131.976298926
 10
182.3681894989
 20
130.4903646732
 10
178.693449164
 20
128.6823684544
 10
177.823721731
 20
128.192830078
  0
LWPOLYLINE
  5
32A
330
277
100
AcDbEntity
  8
0
  6
Continuous
 62
     7
370
    25
100
AcDbPolyline
 90
       11
 70
   128
 43
0.0
 10
157.0113383282
 20
114.4119622774
 10
154.0259055894
 20
113.64344466
 10
150.5609466278
 20
113.118411069
 10
146.9588435126
 20
112.9429141971
 10
143.2353933425
 20
113.1177236895
 10
139.4069253859
 20
113.6420729155
 10
135.4902294693
 20
114.5136623306
 10
131.5024823447
 20
115.7286695611
 10
127.4611723603
 20
117.2817661675
 10
123.3840227659
 20
119.166141012
 10
119.2889139862
 20
121.3735301293
  0
LWPOLYLINE
  5
32E
330
277
100
AcDbEntity
  8
0
  6
Continuous
 62
     7
370
    25
100
AcDbPolyline
 90
       15
 70
   128
 43
0.0
 10
58.4777308041
 20
156.4790789377
 10
54.3826220244
 20
158.9998017767
 10
50.30547243
 20
161.8228036546
 10
46.2641624456
 20
164.9357042376
 10
42.276415321
 20
168.3248518351
 10
38.3597194044
 20
171.9753832692
 10
34.5312514478
 20
175.8712890581
 10
30.8078012777
 20
179.9954836253
 10
27.2056981625
 20
184.3298802293
 10
23.7407392009
 20
188.855470283
 10
20.428120043
 20
193.5524067166
 10
17.2823682494
 20
198.400091017
 10
14.3172795804
 20
203.3772635633
 10
11.5458574944
 20
208.462096861
 10
8.9802561211
 20
213.6322912675
  0
LWPOLYLINE
  5
330
330
277
100
AcDbEntity
  8
0
  6
Continuous
 62
     7
370
    25
100
AcDbPolyline
 90
       19
 70
   128
 43
0.0
 10
8.9802561211
 20
213.6322912675
 10
5.8731173363
 20
219.9617636568
 10
2.567840483
 20
226.2148416625
 10
-0.9268043737
 20
232.3749336635
 10
-4.6015447086
 20
238.4256947631
 10
-8.4466301395
 20
244.3510701582
 10
-12.4518582986
 20
250.1353377381
 10
-16.6066019033
 20
255.763149801
 10
-20.8998369534
 20
261.2195737767
 10
-25.3201719821
 20
266.490131848
 10
-29.8558782818
 20
271.5608393657
 10
-34.4949210241
 20
276.4182419543
 10
-39.2249911923
 20
281.0494512116
 10
-44.0335382423
 20
285.4421789063
 10
-48.9078034027
 20
289.5847695826
 10
-53.8348535292
 20
293.4662314863
 10
-58.8016154201
 20
297.0762657302
 10
-63.7949105045
 20
300.4052936203
 10
-68.8014898095
 20
303.4444820715
  0
LWPOLYLINE
  5
33F
330
277
100
AcDbEntity
  8
0
  6
Continuous
 62
     7
370
    25
100
AcDbPolyline
 90
       22
 70
   128
 43
0.0
 10
-84.4992603518
 20
131.1147958724
 10
-89.7592747428
 20
131.2337336686
 10
-95.1271174231
 20
131.689746598
 10
-100.5920266101
 20
132.4819204178
 10
-106.1430459157
 20
133.6086669288
 10
-111.7690463133
 20
135.06772716
 10
-117.4587484495
 20
136.8561758972
 10
-123.2007452575
 20
138.9704275479
 10
-128.9835248272
 20
141.4062433295
 10
-134.7954934845
 20
144.158739768
 10
-140.6249990353
 20
147.2223984884
 10
-146.4603541265
 20
150.5910772782
 10
-152.2898596773
 20
154.2580224018
 10
-158.1018283346
 20
158.2158821411
 10
-163.8846079043
 20
162.456721534
 10
-169.6266047123
 20
166.9720382836
 10
-175.3163068484
 20
171.7527798036
 10
-180.942307246
 20
176.7893613679
 10
-186.4933265517
 20
182.0716853262
 10
-191.9582357386
 20
187.589161349
 10
-197.326078419
 20
193.3307276592
 10
-202.5860928099
 20
199.2848732096
  0
LWPOLYLINE
  5
342
330
277
100
AcDbEntity
  8
0
  6
Continuous
 62
     7
370
    25
100
AcDbPolyline
 90
       20
 70
   128
 43
0.0
 10
-80.167483769
 20
138.9025685194
 10
-82.2577740056
 20
139.1190604156
 10
-87.7226831925
 20
139.9112342354
 10
-93.2737024981
 20
141.0379807464
 10
-98.8997028957
 20
142.4970409776
 10
-104.5894050319
 20
144.2854897148
 10
-110.3314018399
 20
146.3997413655
 10
-116.1141814096
 20
148.8355571471
 10
-121.9261500669
 20
151.5880535856
 10
-127.7556556177
 20
154.651712306
 10
-133.5910107089
 20
158.0203910958
 10
-139.4205162597
 20
161.6873362194
 10
-145.232484917
 20
165.6451959587
 10
-151.0152644867
 20
169.8860353516
 10
-156.7572612947
 20
174.4013521012
 10
-162.4469634308
 20
179.1820936212
 10
-168.0729638284
 20
184.2186751855
 10
-173.6239831341
 20
189.5009991438
 10
-179.088892321
 20
195.0184751666
 10
-181.1791825575
 20
197.2153810069
  0
LWPOLYLINE
  5
343
330
277
100
AcDbEntity
  8
0
  6
Continuous
 62
     7
370
    25
100
AcDbPolyline
 90
        9
 70
   128
 43
0.0
 10
-479.0648442539
 20
367.0567401891
 10
-480.308472565
 20
366.1819383172
 10
-481.2325717671
 20
365.1838840612
 10
-481.8016292461
 20
364.1009320865
 10
-481.993776442
 20
362.97469963
 10
-481.8016292461
 20
361.8484671735
 10
-481.2325717671
 20
360.7655151988
 10
-480.308472565
 20
359.7674609428
 10
-479.0648442539
 20
358.8926590709
  0
LINE
  5
349
330
277
100
AcDbEntity
  8
0
  6
Continuous
 62
     7
370
    25
100
AcDbLine
 10
-177.6657825932
 20
450.3182653493
 30
0.0
 11
-177.6657825932
 21
450.4435358143
 31
0.0
  0
LINE
  5
34A
330
277
100
AcDbEntity
  8
0
  6
Continuous
 62
     7
370
    25
100
AcDbLine
 10
-177.6657825932
 20
525.4833842965
 30
0.0
 11
-177.6657825932
 21
527.3997179913
 31
0.0
  0
LINE
  5
34B
330
277
100
AcDbEntity
  8
0
  6
Continuous
 62
     7
370
    25
100
AcDbLine
 10
-192.5865311292
 20
476.7852804837
 30
0.0
 11
-178.4443955055
 21
468.6211993655
 31
0.0
  0
LINE
  5
34C
330
277
100
AcDbEntity
  8
0
  6
Continuous
 62
     7
370
    25
100
AcDbLine
 10
-173.6947815254
 20
476.8486635581
 30
0.0
 11
-187.8369171492
 21
485.0127446763
 31
0.0
  0
LINE
  5
34D
330
277
100
AcDbEntity
  8
0
  6
Continuous
 62
     7
370
    25
100
AcDbLine
 10
-483.9029647512
 20
436.9123308112
 30
0.0
 11
-483.9029647512
 21
374.3653046208
 31
0.0
  0
LINE
  5
34E
330
277
100
AcDbEntity
  8
0
  6
Continuous
 62
     7
370
    25
100
AcDbLine
 10
-252.3206226248
 20
395.5393282546
 30
0.0
 11
-321.2674321196
 21
355.7371823458
 31
0.0
  0
LINE
  5
34F
330
277
100
AcDbEntity
  8
0
  6
Continuous
 62
     7
370
    25
100
AcDbLine
 10
-311.2666193799
 20
349.9638360403
 30
0.0
 11
-247.3210289616
 21
386.8788396308
 31
0.0
  0
LINE
  5
350
330
277
100
AcDbEntity
  8
0
  6
Continuous
 62
     7
370
    25
100
AcDbLine
 10
-239.6783651
 20
406.30155596
 30
0.0
 11
-253.8205007238
 21
398.1374748418
 31
0.0
  0
LINE
  5
351
330
277
100
AcDbEntity
  8
0
  6
Continuous
 62
     7
370
    25
100
AcDbLine
 10
-245.8211508627
 20
384.2806930437
 30
0.0
 11
-238.7500830508
 21
388.3627336028
 31
0.0
  0
LINE
  5
352
330
277
100
AcDbEntity
  8
0
  6
Continuous
 62
     7
370
    25
100
AcDbLine
 10
177.823721731
 20
128.192830078
 30
0.0
 11
166.510013232
 21
121.6615651835
 31
0.0
  0
LINE
  5
353
330
277
100
AcDbEntity
  8
0
  6
Continuous
 62
     7
370
    25
100
AcDbLine
 10
-481.993776442
 20
362.97469963
 30
0.0
 11
-481.993776442
 21
113.9297520049
 31
0.0
  0
LINE
  5
354
330
277
100
AcDbEntity
  8
0
  6
Continuous
 62
     7
370
    25
100
AcDbLine
 10
-134.703841816
 20
511.1788362382
 30
0.0
 11
-133.3603389318
 21
511.9544239444
 31
0.0
  0
LINE
  5
355
330
277
100
AcDbEntity
  8
0
  6
Continuous
 62
     7
370
    25
100
AcDbLine
 10
-134.703841816
 20
511.1788362382
 30
0.0
 11
-167.2307537506
 21
529.9562228101
 31
0.0
  0
LINE
  5
356
330
277
100
AcDbEntity
  8
0
  6
Continuous
 62
     7
370
    25
100
AcDbLine
 10
-199.7576656852
 20
511.1788362382
 30
0.0
 11
-167.2307537506
 21
529.9562228101
 31
0.0
  0
LINE
  5
357
330
277
100
AcDbEntity
  8
0
  6
Continuous
 62
     7
370
    25
100
AcDbLine
 10
-201.1011685695
 20
511.9544239444
 30
0.0
 11
-199.7576656852
 21
511.1788362382
 31
0.0
  0
LINE
  5
358
330
277
100
AcDbEntity
  8
0
  6
Continuous
 62
     7
370
    25
100
AcDbLine
 10
-201.1011685695
 20
511.9544239444
 30
0.0
 11
-167.2307537506
 21
531.5073982226
 31
0.0
  0
LINE
  5
359
330
277
100
AcDbEntity
  8
0
  6
Continuous
 62
     7
370
    25
100
AcDbLine
 10
-133.3603389318
 20
511.9544239444
 30
0.0
 11
-167.2307537506
 21
531.5073982226
 31
0.0
  0
LINE
  5
35A
330
277
100
AcDbEntity
  8
0
  6
Continuous
 62
     7
370
    25
100
AcDbLine
 10
-134.703841816
 20
437.6901631685
 30
0.0
 11
-134.703841816
 21
511.1788362382
 31
0.0
  0
LINE
  5
35B
330
277
100
AcDbEntity
  8
0
  6
Continuous
 62
     7
370
    25
100
AcDbLine
 10
-167.2307537506
 20
456.4675497404
 30
0.0
 11
-134.703841816
 21
437.6901631685
 31
0.0
  0
LINE
  5
35C
330
277
100
AcDbEntity
  8
0
  6
Continuous
 62
     7
370
    25
100
AcDbLine
 10
-167.2307537506
 20
529.9562228101
 30
0.0
 11
-167.2307537506
 21
456.4675497404
 31
0.0
  0
LINE
  5
35D
330
277
100
AcDbEntity
  8
0
  6
Continuous
 62
     7
370
    25
100
AcDbLine
 10
-145.3104435338
 20
456.8778769973
 30
0.0
 11
-156.6241520328
 21
463.4091418919
 31
0.0
  0
LINE
  5
35E
330
277
100
AcDbEntity
  8
0
  6
Continuous
 62
     7
370
    25
100
AcDbLine
 10
-156.6241520328
 20
458.5098970206
 30
0.0
 11
-145.3104435338
 21
451.978632126
 31
0.0
  0
LINE
  5
35F
330
277
100
AcDbEntity
  8
0
  6
Continuous
 62
     7
370
    25
100
AcDbLine
 10
-148.8459774398
 20
478.5158767621
 30
0.0
 11
-148.8459774398
 21
486.681284881
 31
0.0
  0
LINE
  5
360
330
277
100
AcDbEntity
  8
0
  6
Continuous
 62
     7
370
    25
100
AcDbLine
 10
-153.0886181269
 20
489.1305092164
 30
0.0
 11
-153.0886181269
 21
480.9651010976
 31
0.0
  0
LINE
  5
361
330
277
100
AcDbEntity
  8
0
  6
Continuous
 62
     7
370
    25
100
AcDbLine
 10
-145.3104435338
 20
509.136488958
 30
0.0
 11
-156.6241520328
 21
515.6677538526
 31
0.0
  0
LINE
  5
362
330
277
100
AcDbEntity
  8
0
  6
Continuous
 62
     7
370
    25
100
AcDbLine
 10
-156.6241520328
 20
510.7685089812
 30
0.0
 11
-145.3104435338
 21
504.2372440867
 31
0.0
  0
LINE
  5
363
330
277
100
AcDbEntity
  8
0
  6
Continuous
 62
     7
370
    25
100
AcDbLine
 10
-190.5652775298
 20
475.6184356178
 30
0.0
 11
-190.5652775298
 21
459.327632133
 31
0.0
  0
LINE
  5
364
330
277
100
AcDbEntity
  8
0
  6
Continuous
 62
     7
370
    25
100
AcDbLine
 10
-183.4942097179
 20
463.4096726921
 30
0.0
 11
-183.4942097179
 21
471.5363950587
 31
0.0
  0
LINE
  5
365
330
277
100
AcDbEntity
  8
0
  6
Continuous
 62
     7
370
    25
100
AcDbLine
 10
-183.4942097179
 20
482.5057530391
 30
0.0
 11
-183.4942097179
 21
504.2367132864
 31
0.0
  0
LINE
  5
366
330
277
100
AcDbEntity
  8
0
  6
Continuous
 62
     7
370
    25
100
AcDbLine
 10
-190.5652775298
 20
500.1546727273
 30
0.0
 11
-190.5652775298
 21
483.8238564896
 31
0.0
  0
LINE
  5
367
330
277
100
AcDbEntity
  8
0
  6
Continuous
 62
     7
370
    25
100
AcDbLine
 10
-190.5652775298
 20
483.8238564896
 30
0.0
 11
-199.7576656852
 21
478.5172037627
 31
0.0
  0
LINE
  5
368
330
277
100
AcDbEntity
  8
0
  6
Continuous
 62
     7
370
    25
100
AcDbLine
 10
-199.7576656852
 20
511.1788362382
 30
0.0
 11
-199.7576656852
 21
478.5172037627
 31
0.0
  0
LINE
  5
369
330
277
100
AcDbEntity
  8
0
  6
Continuous
 62
     7
370
    25
100
AcDbLine
 10
-199.7576656852
 20
437.6901631685
 30
0.0
 11
-167.2307537506
 21
456.4675497404
 31
0.0
  0
LINE
  5
36A
330
277
100
AcDbEntity
  8
0
  6
Continuous
 62
     7
370
    25
100
AcDbLine
 10
-199.7576656852
 20
470.3517956439
 30
0.0
 11
-199.7576656852
 21
437.6901631685
 31
0.0
  0
LINE
  5
36B
330
277
100
AcDbEntity
  8
0
  6
Continuous
 62
     7
370
    25
100
AcDbLine
 10
-199.7576656852
 20
470.3517956439
 30
0.0
 11
-190.5999333453
 21
475.6384419942
 31
0.0
  0
LINE
  5
36C
330
277
100
AcDbEntity
  8
0
  6
Continuous
 62
     7
370
    25
100
AcDbLine
 10
-134.703841816
 20
437.6901631685
 30
0.0
 11
-133.3603389318
 21
438.4657508747
 31
0.0
  0
LINE
  5
36D
330
277
100
AcDbEntity
  8
0
  6
Continuous
 62
     7
370
    25
100
AcDbLine
 10
-133.3603389318
 20
438.4657508747
 30
0.0
 11
-133.3603389318
 21
511.9544239444
 31
0.0
  0
LINE
  5
36E
330
277
100
AcDbEntity
  8
0
  6
Continuous
 62
     7
370
    25
100
AcDbLine
 10
-201.1011685695
 20
479.292791469
 30
0.0
 11
-199.7576656852
 21
478.5172037627
 31
0.0
  0
LINE
  5
36F
330
277
100
AcDbEntity
  8
0
  6
Continuous
 62
     7
370
    25
100
AcDbLine
 10
-201.1011685695
 20
479.292791469
 30
0.0
 11
-201.1011685695
 21
511.9544239444
 31
0.0
  0
LINE
  5
370
330
277
100
AcDbEntity
  8
0
  6
Continuous
 62
     7
370
    25
100
AcDbLine
 10
-143.9669406496
 20
505.0128317929
 30
0.0
 11
-145.3104435338
 21
504.2372440867
 31
0.0
  0
LINE
  5
371
330
277
100
AcDbEntity
  8
0
  6
Continuous
 62
     7
370
    25
100
AcDbLine
 10
-143.9669406496
 20
505.0128317929
 30
0.0
 11
-143.2975988923
 21
504.7515671044
 31
0.0
  0
LINE
  5
372
330
277
100
AcDbEntity
  8
0
  6
Continuous
 62
     7
370
    25
100
AcDbLine
 10
-184.8377126022
 20
505.0123009926
 30
0.0
 11
-183.4942097179
 21
504.2367132864
 31
0.0
  0
LINE
  5
373
330
277
100
AcDbEntity
  8
0
  6
Continuous
 62
     7
370
    25
100
AcDbLine
 10
-155.2806491486
 20
511.5440966875
 30
0.0
 11
-156.6241520328
 21
510.7685089812
 31
0.0
  0
LINE
  5
374
330
277
100
AcDbEntity
  8
0
  6
Continuous
 62
     7
370
    25
100
AcDbLine
 10
-155.2806491486
 20
511.5440966875
 30
0.0
 11
-143.9669406496
 21
505.0128317929
 31
0.0
  0
LINE
  5
375
330
277
100
AcDbEntity
  8
0
  6
Continuous
 62
     7
370
    25
100
AcDbLine
 10
-184.8377126022
 20
464.1852603984
 30
0.0
 11
-183.4942097179
 21
463.4096726921
 31
0.0
  0
LINE
  5
376
330
277
100
AcDbEntity
  8
0
  6
Continuous
 62
     7
370
    25
100
AcDbLine
 10
-184.8377126022
 20
464.1852603984
 30
0.0
 11
-184.8377126022
 21
472.3119827649
 31
0.0
  0
LINE
  5
377
330
277
100
AcDbEntity
  8
0
  6
Continuous
 62
     7
370
    25
100
AcDbLine
 10
-184.8377126022
 20
483.2813407453
 30
0.0
 11
-184.8377126022
 21
505.0123009926
 31
0.0
  0
LINE
  5
378
330
277
100
AcDbEntity
  8
0
  6
Continuous
 62
     7
370
    25
100
AcDbLine
 10
-201.1011685695
 20
471.1273833501
 30
0.0
 11
-199.7576656852
 21
470.3517956439
 31
0.0
  0
LINE
  5
379
330
277
100
AcDbEntity
  8
0
  6
Continuous
 62
     7
370
    25
100
AcDbLine
 10
-201.1011685695
 20
471.1273833501
 30
0.0
 11
-191.9434362296
 21
476.4140297005
 31
0.0
  0
LINE
  5
37A
330
277
100
AcDbEntity
  8
0
  6
Continuous
 62
     7
370
    25
100
AcDbLine
 10
-199.7576656852
 20
437.6901631685
 30
0.0
 11
-201.1011685695
 21
438.4657508747
 31
0.0
  0
LINE
  5
37B
330
277
100
AcDbEntity
  8
0
  6
Continuous
 62
     7
370
    25
100
AcDbLine
 10
-201.1011685695
 20
438.4657508747
 30
0.0
 11
-201.1011685695
 21
471.1273833501
 31
0.0
  0
LINE
  5
37C
330
277
100
AcDbEntity
  8
0
  6
Continuous
 62
     7
370
    25
100
AcDbLine
 10
-151.7451152426
 20
489.9060969227
 30
0.0
 11
-153.0886181269
 21
489.1305092164
 31
0.0
  0
LINE
  5
37D
330
277
100
AcDbEntity
  8
0
  6
Continuous
 62
     7
370
    25
100
AcDbLine
 10
-151.6366395406
 20
490.6167841729
 30
0.0
 11
-151.7451152426
 21
489.9060969227
 31
0.0
  0
LINE
  5
37E
330
277
100
AcDbEntity
  8
0
  6
Continuous
 62
     7
370
    25
100
AcDbLine
 10
-151.7451152426
 20
481.7406888038
 30
0.0
 11
-153.0886181269
 21
480.9651010976
 31
0.0
  0
LINE
  5
37F
330
277
100
AcDbEntity
  8
0
  6
Continuous
 62
     7
370
    25
100
AcDbLine
 10
-151.7451152426
 20
489.9060969227
 30
0.0
 11
-151.7451152426
 21
481.7406888038
 31
0.0
  0
LINE
  5
380
330
277
100
AcDbEntity
  8
0
  6
Continuous
 62
     7
370
    25
100
AcDbLine
 10
-143.9669406496
 20
452.7542198322
 30
0.0
 11
-145.3104435338
 21
451.978632126
 31
0.0
  0
LINE
  5
381
330
277
100
AcDbEntity
  8
0
  6
Continuous
 62
     7
370
    25
100
AcDbLine
 10
-143.9669406496
 20
452.7542198322
 30
0.0
 11
-143.2975988923
 21
452.4929551437
 31
0.0
  0
LINE
  5
382
330
277
100
AcDbEntity
  8
0
  6
Continuous
 62
     7
370
    25
100
AcDbLine
 10
-155.2806491486
 20
459.2854847268
 30
0.0
 11
-156.6241520328
 21
458.5098970206
 31
0.0
  0
LINE
  5
383
330
277
100
AcDbEntity
  8
0
  6
Continuous
 62
     7
370
    25
100
AcDbLine
 10
-155.2806491486
 20
459.2854847268
 30
0.0
 11
-143.9669406496
 21
452.7542198322
 31
0.0
  0
LINE
  5
384
330
277
100
AcDbEntity
  8
0
  6
Continuous
 62
     7
370
    25
100
AcDbLine
 10
-462.0942815054
 20
441.5257664933
 30
0.0
 11
-474.963624923
 21
448.9550803109
 31
0.0
  0
LINE
  5
385
330
277
100
AcDbEntity
  8
0
  6
Continuous
 62
     7
370
    25
100
AcDbLine
 10
-462.0942815054
 20
441.5257664933
 30
0.0
 11
-462.0942815054
 21
437.034792028
 31
0.0
  0
LINE
  5
386
330
277
100
AcDbEntity
  8
0
  6
Continuous
 62
     7
370
    25
100
AcDbLine
 10
-474.963624923
 20
448.9550803109
 30
0.0
 11
-474.963624923
 21
444.4641058456
 31
0.0
  0
LINE
  5
387
330
277
100
AcDbEntity
  8
0
  6
Continuous
 62
     7
370
    25
100
AcDbLine
 10
-170.7662876566
 20
609.7058375288
 30
0.0
 11
-183.6356310741
 21
617.1351513464
 31
0.0
  0
LINE
  5
388
330
277
100
AcDbEntity
  8
0
  6
Continuous
 62
     7
370
    25
100
AcDbLine
 10
-170.7662876566
 20
609.7058375288
 30
0.0
 11
-462.0942815054
 21
441.5257664933
 31
0.0
  0
LINE
  5
389
330
277
100
AcDbEntity
  8
0
  6
Continuous
 62
     7
370
    25
100
AcDbLine
 10
-183.6356310741
 20
617.1351513464
 30
0.0
 11
-474.963624923
 21
448.9550803109
 31
0.0
  0
LINE
  5
38A
330
277
100
AcDbEntity
  8
0
  6
Continuous
 62
     7
370
    25
100
AcDbLine
 10
-170.7662876566
 20
362.3075069339
 30
0.0
 11
-170.7662876566
 21
454.4265294608
 31
0.0
  0
LINE
  5
38B
330
277
100
AcDbEntity
  8
0
  6
Continuous
 62
     7
370
    25
100
AcDbLine
 10
-170.7662876566
 20
529.466377943
 30
0.0
 11
-170.7662876566
 21
609.7058375288
 31
0.0
  0
LINE
  5
38C
330
277
100
AcDbEntity
  8
0
  6
Continuous
 62
     7
370
    25
100
AcDbLine
 10
-206.1216267159
 20
435.6229193365
 30
0.0
 11
-206.1216267159
 21
512.7043719785
 31
0.0
  0
LINE
  5
38D
330
277
100
AcDbEntity
  8
0
  6
Continuous
 62
     7
370
    25
100
AcDbLine
 10
-201.8789860288
 20
512.7043719785
 30
0.0
 11
-201.8789860288
 21
435.6229193365
 31
0.0
  0
LINE
  5
38E
330
277
100
AcDbEntity
  8
0
  6
Continuous
 62
     7
370
    25
100
AcDbLine
 10
-207.5358402783
 20
513.5207800903
 30
0.0
 11
-206.1216267159
 21
512.7043719785
 31
0.0
  0
LINE
  5
38F
330
277
100
AcDbEntity
  8
0
  6
Continuous
 62
     7
370
    25
100
AcDbLine
 10
-207.5358402783
 20
513.5207800903
 30
0.0
 11
-206.2630480721
 21
514.255547391
 31
0.0
  0
LINE
  5
390
330
277
100
AcDbEntity
  8
0
  6
Continuous
 62
     7
370
    25
100
AcDbLine
 10
-206.2630480721
 20
514.255547391
 30
0.0
 11
-204.8488345097
 21
513.4391392791
 31
0.0
  0
LINE
  5
391
330
277
100
AcDbEntity
  8
0
  6
Continuous
 62
     7
370
    25
100
AcDbLine
 10
-203.1517782349
 20
513.4391392791
 30
0.0
 11
-202.4446714537
 21
513.8473433351
 31
0.0
  0
LINE
  5
392
330
277
100
AcDbEntity
  8
0
  6
Continuous
 62
     7
370
    25
100
AcDbLine
 10
-202.4446714537
 20
513.8473433351
 30
0.0
 11
-201.1718792476
 21
513.1125760344
 31
0.0
  0
LINE
  5
393
330
277
100
AcDbEntity
  8
0
  6
Continuous
 62
     7
370
    25
100
AcDbLine
 10
-201.8789860288
 20
512.7043719785
 30
0.0
 11
-201.1718792476
 21
513.1125760344
 31
0.0
  0
LINE
  5
394
330
277
100
AcDbEntity
  8
0
  6
Continuous
 62
     7
370
    25
100
AcDbLine
 10
-201.1718792476
 20
513.1125760344
 30
0.0
 11
-201.1718792476
 21
514.5823494958
 31
0.0
  0
LINE
  5
395
330
277
100
AcDbEntity
  8
0
  6
Continuous
 62
     7
370
    25
100
AcDbLine
 10
-179.2515690308
 20
527.2366752291
 30
0.0
 11
-201.1718792476
 21
514.5823494958
 31
0.0
  0
LINE
  5
396
330
277
100
AcDbEntity
  8
0
  6
Continuous
 62
     7
370
    25
100
AcDbLine
 10
-179.2515690308
 20
527.2366752291
 30
0.0
 11
-179.2515690308
 21
525.7669017677
 31
0.0
  0
LINE
  5
397
330
277
100
AcDbEntity
  8
0
  6
Continuous
 62
     7
370
    25
100
AcDbLine
 10
-179.2515690308
 20
525.7669017677
 30
0.0
 11
-178.5444622496
 21
526.1751058236
 31
0.0
  0
LINE
  5
398
330
277
100
AcDbEntity
  8
0
  6
Continuous
 62
     7
370
    25
100
AcDbLine
 10
-178.5444622496
 20
449.0936531816
 30
0.0
 11
-179.2515690308
 21
448.6854491256
 31
0.0
  0
LINE
  5
399
330
277
100
AcDbEntity
  8
0
  6
Continuous
 62
     7
370
    25
100
AcDbLine
 10
-179.2515690308
 20
448.6854491256
 30
0.0
 11
-179.2515690308
 21
447.2156756643
 31
0.0
  0
LINE
  5
39A
330
277
100
AcDbEntity
  8
0
  6
Continuous
 62
     7
370
    25
100
AcDbLine
 10
-179.2515690308
 20
447.2156756643
 30
0.0
 11
-201.1718792476
 21
434.561349931
 31
0.0
  0
LINE
  5
39B
330
277
100
AcDbEntity
  8
0
  6
Continuous
 62
     7
370
    25
100
AcDbLine
 10
-201.1718792476
 20
434.561349931
 30
0.0
 11
-201.1718792476
 21
436.0311233924
 31
0.0
  0
LINE
  5
39C
330
277
100
AcDbEntity
  8
0
  6
Continuous
 62
     7
370
    25
100
AcDbLine
 10
-201.1718792476
 20
436.0311233924
 30
0.0
 11
-201.8789860288
 21
435.6229193365
 31
0.0
  0
LINE
  5
39D
330
277
100
AcDbEntity
  8
0
  6
Continuous
 62
     7
370
    25
100
AcDbLine
 10
-190.2117241392
 20
484.7775814365
 30
0.0
 11
-190.5652775298
 21
484.551931637
 31
0.0
  0
LINE
  5
39E
330
277
100
AcDbEntity
  8
0
  6
Continuous
 62
     7
370
    25
100
AcDbLine
 10
-202.4446714537
 20
515.3171167964
 30
0.0
 11
-201.1718792476
 21
514.5823494958
 31
0.0
  0
LINE
  5
39F
330
277
100
AcDbEntity
  8
0
  6
Continuous
 62
     7
370
    25
100
AcDbLine
 10
-202.4446714537
 20
515.3171167964
 30
0.0
 11
-180.5243612369
 21
527.9714425297
 31
0.0
  0
LINE
  5
3A0
330
277
100
AcDbEntity
  8
0
  6
Continuous
 62
     7
370
    25
100
AcDbLine
 10
-180.5243612369
 20
527.9714425297
 30
0.0
 11
-179.2515690308
 21
527.2366752291
 31
0.0
  0
LINE
  5
3A1
330
277
100
AcDbEntity
  8
0
  6
Continuous
 62
     7
370
    25
100
AcDbLine
 10
-202.4446714537
 20
513.8473433351
 30
0.0
 11
-202.4446714537
 21
515.3171167964
 31
0.0
  0
LINE
  5
3A2
330
277
100
AcDbEntity
  8
0
  6
Continuous
 62
     7
370
    25
100
AcDbLine
 10
-207.5358402783
 20
436.4393274483
 30
0.0
 11
-206.1216267159
 21
435.6229193365
 31
0.0
  0
LINE
  5
3A3
330
277
100
AcDbEntity
  8
0
  6
Continuous
 62
     7
370
    25
100
AcDbLine
 10
-207.5358402783
 20
436.4393274483
 30
0.0
 11
-207.5358402783
 21
513.5207800903
 31
0.0
  0
LINE
  5
3A4
330
277
100
AcDbEntity
  8
0
  6
Continuous
 62
     7
370
    25
100
AcDbLine
 10
-179.8172544557
 20
527.8895628584
 30
0.0
 11
-181.2314680181
 21
528.7059709702
 31
0.0
  0
LINE
  5
3A5
330
277
100
AcDbEntity
  8
0
  6
Continuous
 62
     7
370
    25
100
AcDbLine
 10
-181.2314680181
 20
528.7059709702
 30
0.0
 11
-179.958675812
 21
529.4407382709
 31
0.0
  0
LINE
  5
3A6
330
277
100
AcDbEntity
  8
0
  6
Continuous
 62
     7
370
    25
100
AcDbLine
 10
-179.958675812
 20
529.4407382709
 30
0.0
 11
-178.5444622496
 21
528.624330159
 31
0.0
  0
LINE
  5
3A7
330
277
100
AcDbEntity
  8
0
  6
Continuous
 62
     7
370
    25
100
AcDbLine
 10
-181.2314680181
 20
527.5632384738
 30
0.0
 11
-181.2314680181
 21
528.7059709702
 31
0.0
  0
LINE
  5
3A8
330
277
100
AcDbEntity
  8
0
  6
Continuous
 62
     7
370
    25
100
AcDbLine
 10
-202.4446714537
 20
435.2961172316
 30
0.0
 11
-201.1718792476
 21
434.561349931
 31
0.0
  0
LINE
  5
3A9
330
277
100
AcDbEntity
  8
0
  6
Continuous
 62
     7
370
    25
100
AcDbLine
 10
-202.4446714537
 20
435.2961172316
 30
0.0
 11
-202.4446714537
 21
435.3667013132
 31
0.0
  0
LINE
  5
3AA
330
277
100
AcDbEntity
  8
0
  6
Continuous
 62
     7
370
    25
100
AcDbLine
 10
199.050558904
 20
59.8549742162
 30
0.0
 11
199.050558904
 21
55.3639997509
 31
0.0
  0
LINE
  5
3AB
330
277
100
AcDbEntity
  8
0
  6
Continuous
 62
     7
370
    25
100
AcDbLine
 10
199.050558904
 20
59.8549742162
 30
0.0
 11
211.9199023216
 21
52.4256603986
 31
0.0
  0
LINE
  5
3AC
330
277
100
AcDbEntity
  8
0
  6
Continuous
 62
     7
370
    25
100
AcDbLine
 10
211.9199023216
 20
52.4256603986
 30
0.0
 11
211.9199023216
 21
-274.1906643557
 31
0.0
  0
LINE
  5
3AD
330
277
100
AcDbEntity
  8
0
  6
Continuous
 62
     7
370
    25
100
AcDbLine
 10
503.2478961705
 20
220.6057314341
 30
0.0
 11
211.9199023216
 21
52.4256603986
 31
0.0
  0
LINE
  5
3AE
330
277
100
AcDbEntity
  8
0
  6
Continuous
 62
     7
370
    25
100
AcDbLine
 10
503.2478961705
 20
-106.0105933202
 30
0.0
 11
503.2478961705
 21
220.6057314341
 31
0.0
  0
LINE
  5
3AF
330
277
100
AcDbEntity
  8
0
  6
Continuous
 62
     7
370
    25
100
AcDbLine
 10
206.1216267159
 20
-277.5379376141
 30
0.0
 11
503.2478961705
 21
-106.0105933202
 31
0.0
  0
LINE
  5
3B0
330
277
100
AcDbEntity
  8
0
  6
Continuous
 62
     7
370
    25
100
AcDbLine
 10
490.3785527529
 20
228.0350452517
 30
0.0
 11
199.050558904
 21
59.8549742162
 31
0.0
  0
LINE
  5
3B1
330
277
100
AcDbEntity
  8
0
  6
Continuous
 62
     7
370
    25
100
AcDbLine
 10
490.3785527529
 20
228.0350452517
 30
0.0
 11
503.2478961705
 21
220.6057314341
 31
0.0
  0
LINE
  5
3B2
330
277
100
AcDbEntity
  8
0
  6
Continuous
 62
     7
370
    25
100
AcDbLine
 10
-474.963624923
 20
444.4641058456
 30
0.0
 11
-480.9740325631
 21
440.9943713703
 31
0.0
  0
LINE
  5
3B3
330
277
100
AcDbEntity
  8
0
  6
Continuous
 62
     7
370
    25
100
AcDbLine
 10
-474.963624923
 20
444.4641058456
 30
0.0
 11
210.9299528279
 21
48.5061716115
 31
0.0
  0
LINE
  5
3B4
330
277
100
AcDbEntity
  8
0
  6
Continuous
 62
     7
370
    25
100
AcDbLine
 10
210.9299528279
 20
48.5061716115
 30
0.0
 11
204.9195451879
 21
45.0364371363
 31
0.0
  0
LINE
  5
3B5
330
277
100
AcDbEntity
  8
0
  6
Continuous
 62
     7
370
    25
100
AcDbLine
 10
-480.9740325631
 20
432.8302902521
 30
0.0
 11
190.7774095641
 21
45.0364371363
 31
0.0
  0
LINE
  5
3B6
330
277
100
AcDbEntity
  8
0
  6
Continuous
 62
     7
370
    25
100
AcDbLine
 10
204.9195451879
 20
45.0364371363
 30
0.0
 11
204.9195451879
 21
-17.5105890541
 31
0.0
  0
LINE
  5
3B7
330
277
100
AcDbEntity
  8
0
  6
Continuous
 62
     7
370
    25
100
AcDbLine
 10
190.7774095641
 20
-17.5105890541
 30
0.0
 11
190.7774095641
 21
45.0364371363
 31
0.0
  0
LINE
  5
3B8
330
277
100
AcDbEntity
  8
0
  6
Continuous
 62
     7
370
    25
100
AcDbLine
 10
-480.9740325631
 20
432.8302902521
 30
0.0
 11
-480.9740325631
 21
370.2832640616
 31
0.0
  0
LINE
  5
3B9
330
277
100
AcDbEntity
  8
0
  6
Continuous
 62
     7
370
    25
100
AcDbLine
 10
190.7774095641
 20
-17.5105890541
 30
0.0
 11
-480.9740325631
 21
370.2832640616
 31
0.0
  0
LINE
  5
3BA
330
277
100
AcDbEntity
  8
0
  6
Continuous
 62
     7
370
    25
100
AcDbLine
 10
210.9299528279
 20
48.5061716115
 30
0.0
 11
210.9299528279
 21
-14.0408545789
 31
0.0
  0
LINE
  5
3BB
330
277
100
AcDbEntity
  8
0
  6
Continuous
 62
     7
370
    25
100
AcDbLine
 10
210.9299528279
 20
-14.0408545789
 30
0.0
 11
204.9195451879
 21
-17.5105890541
 31
0.0
  0
LINE
  5
3BC
330
277
100
AcDbEntity
  8
0
  6
Continuous
 62
     7
370
    25
100
AcDbLine
 10
-221.5365545457
 20
378.5540283591
 30
0.0
 11
-221.5365545457
 21
298.1637722069
 31
0.0
  0
LINE
  5
3BD
330
277
100
AcDbEntity
  8
0
  6
Continuous
 62
     7
370
    25
100
AcDbLine
 10
-221.5365545457
 20
378.5540283591
 30
0.0
 11
-210.2228460468
 21
385.0852932537
 31
0.0
  0
LINE
  5
3BE
330
277
100
AcDbEntity
  8
0
  6
Continuous
 62
     7
370
    25
100
AcDbLine
 10
-236.3857969507
 20
319.3534261468
 30
0.0
 11
-247.313942918
 21
313.0447417639
 31
0.0
  0
LINE
  5
3BF
330
277
100
AcDbEntity
  8
0
  6
Continuous
 62
     7
370
    25
100
AcDbLine
 10
-235.0306324013
 20
305.9537375389
 30
0.0
 11
-236.3857969507
 21
319.3534261468
 31
0.0
  0
LINE
  5
3C0
330
277
100
AcDbEntity
  8
0
  6
Continuous
 62
     7
370
    25
100
AcDbLine
 10
-241.335544419
 20
327.9257113209
 30
0.0
 11
-257.2134378547
 21
318.7595985467
 31
0.0
  0
LINE
  5
3C1
330
277
100
AcDbEntity
  8
0
  6
Continuous
 62
     7
370
    25
100
AcDbLine
 10
-236.3857969507
 20
319.3534261468
 30
0.0
 11
-241.335544419
 21
322.2108545381
 31
0.0
  0
LINE
  5
3C2
330
277
100
AcDbEntity
  8
0
  6
Continuous
 62
     7
370
    25
100
AcDbLine
 10
-230.0322132339
 20
396.5090161235
 30
0.0
 11
-230.02183592
 21
396.5150068192
 31
0.0
  0
LINE
  5
3C3
330
277
100
AcDbEntity
  8
0
  6
Continuous
 62
     7
370
    25
100
AcDbLine
 10
-230.02183592
 20
396.5150068192
 30
0.0
 11
-211.000641434
 21
385.5343049733
 31
0.0
  0
LINE
  5
3C4
330
277
100
AcDbEntity
  8
0
  6
Continuous
 62
     7
370
    25
100
AcDbLine
 10
-211.000641434
 20
385.5343049733
 30
0.0
 11
-209.9399812622
 21
386.1466110572
 31
0.0
  0
LINE
  5
3C5
330
277
100
AcDbEntity
  8
0
  6
Continuous
 62
     7
370
    25
100
AcDbLine
 10
-209.9399812622
 20
386.1466110572
 30
0.0
 11
-196.5049524197
 21
378.3907339949
 31
0.0
  0
LINE
  5
3C6
330
277
100
AcDbEntity
  8
0
  6
Continuous
 62
     7
370
    25
100
AcDbLine
 10
-196.5049524197
 20
378.3907339949
 30
0.0
 11
-197.5656125915
 21
377.778427911
 31
0.0
  0
LINE
  5
3C7
330
277
100
AcDbEntity
  8
0
  6
Continuous
 62
     7
370
    25
100
AcDbLine
 10
-68.8014898095
 20
303.4444820715
 30
0.0
 11
-210.2228460468
 21
385.0852932537
 31
0.0
  0
LINE
  5
3C8
330
277
100
AcDbEntity
  8
0
  6
Continuous
 62
     7
370
    25
100
AcDbLine
 10
-80.1151983084
 20
296.9132171769
 30
0.0
 11
-238.6418388001
 21
388.4286987709
 31
0.0
  0
LINE
  5
3C9
330
277
100
AcDbEntity
  8
0
  6
Continuous
 62
     7
370
    25
100
AcDbLine
 10
-231.5707709882
 20
392.51073933
 30
0.0
 11
-238.6418388001
 21
388.4286987709
 31
0.0
  0
LINE
  5
3CA
330
277
100
AcDbEntity
  8
0
  6
Continuous
 62
     7
370
    25
100
AcDbLine
 10
-196.5049524197
 20
378.3907339949
 30
0.0
 11
-196.5049524197
 21
377.1661218271
 31
0.0
  0
LINE
  5
3CB
330
277
100
AcDbEntity
  8
0
  6
Continuous
 62
     7
370
    25
100
AcDbLine
 10
-238.7500830508
 20
388.3627336028
 30
0.0
 11
-238.6418388001
 21
388.4286987709
 31
0.0
  0
LINE
  5
3CC
330
277
100
AcDbEntity
  8
0
  6
Continuous
 62
     7
370
    25
100
AcDbLine
 10
-241.335544419
 20
386.8701785249
 30
0.0
 11
-241.335544419
 21
322.2108545381
 31
0.0
  0
LINE
  5
3CD
330
277
100
AcDbEntity
  8
0
  6
Continuous
 62
     7
370
    25
100
AcDbLine
 10
107.9752054872
 20
114.8422652347
 30
0.0
 11
47.1640223051
 21
149.9478140431
 31
0.0
  0
LINE
  5
3CE
330
277
100
AcDbEntity
  8
0
  6
Continuous
 62
     7
370
    25
100
AcDbLine
 10
264.7883878045
 20
97.8046150597
 30
0.0
 11
235.2544261008
 21
114.8542082404
 31
0.0
  0
LINE
  5
3CF
330
277
100
AcDbEntity
  8
0
  6
Continuous
 62
     7
370
    25
100
AcDbLine
 10
235.2544261008
 20
114.8542082404
 30
0.0
 11
246.5681345997
 21
121.385473135
 31
0.0
  0
LINE
  5
3D0
330
277
100
AcDbEntity
  8
0
  6
Continuous
 62
     7
370
    25
100
AcDbLine
 10
276.1020963035
 20
104.3358799542
 30
0.0
 11
246.5681345997
 21
121.385473135
 31
0.0
  0
LINE
  5
3D1
330
277
100
AcDbEntity
  8
0
  6
Continuous
 62
     7
370
    25
100
AcDbLine
 10
107.9752054872
 20
114.8422652347
 30
0.0
 11
119.2889139862
 21
121.3735301293
 31
0.0
  0
LINE
  5
3D2
330
277
100
AcDbEntity
  8
0
  6
Continuous
 62
     7
370
    25
100
AcDbLine
 10
47.1640223051
 20
149.9478140431
 30
0.0
 11
58.4777308041
 21
156.4790789377
 31
0.0
  0
LINE
  5
3D3
330
277
100
AcDbEntity
  8
0
  6
Continuous
 62
     7
370
    25
100
AcDbLine
 10
119.2889139862
 20
121.3735301293
 30
0.0
 11
58.4777308041
 21
156.4790789377
 31
0.0
  0
LINE
  5
3D4
330
277
100
AcDbEntity
  8
0
  6
Continuous
 62
     7
370
    25
100
AcDbLine
 10
-2.3334523779
 20
207.1010263729
 30
0.0
 11
8.9802561211
 21
213.6322912675
 31
0.0
  0
LINE
  5
3D5
330
277
100
AcDbEntity
  8
0
  6
Continuous
 62
     7
370
    25
100
AcDbLine
 10
-80.1151983084
 20
296.9132171769
 30
0.0
 11
-68.8014898095
 21
303.4444820715
 31
0.0
  0
LINE
  5
3D6
330
277
100
AcDbEntity
  8
0
  6
Continuous
 62
     7
370
    25
100
AcDbLine
 10
191.9794910921
 20
-277.5379376141
 30
0.0
 11
191.9794910921
 21
-28.492989989
 31
0.0
  0
LINE
  5
3D7
330
277
100
AcDbEntity
  8
0
  6
Continuous
 62
     7
370
    25
100
AcDbLine
 10
206.1216267159
 20
-28.492989989
 30
0.0
 11
206.1216267159
 21
-277.5379376141
 31
0.0
  0
LINE
  5
3D8
330
277
100
AcDbEntity
  8
0
  6
Continuous
 62
     7
370
    25
100
AcDbLine
 10
-84.4992603518
 20
131.1147958724
 30
0.0
 11
-75.5882322592
 21
136.2590228923
 31
0.0
  0
LINE
  5
3D9
330
277
100
AcDbEntity
  8
0
  6
Continuous
 62
     7
370
    25
100
AcDbLine
 10
211.9199023216
 20
-25.1457167305
 30
0.0
 11
201.0848013539
 21
-18.8907460827
 31
0.0
  0
LINE
  5
3DA
330
277
100
AcDbEntity
  8
0
  6
Continuous
 62
     7
370
    25
100
AcDbLine
 10
206.1216267159
 20
-28.492989989
 30
0.0
 11
211.9199023216
 21
-25.1457167305
 31
0.0
  0
LINE
  5
3DB
330
277
100
AcDbEntity
  8
0
  6
Continuous
 62
     7
370
    25
100
AcDbLine
 10
191.9794910921
 20
-28.492989989
 30
0.0
 11
-84.4992603518
 21
131.1147958724
 31
0.0
  0
LINE
  5
3DC
330
277
100
AcDbEntity
  8
0
  6
Continuous
 62
     7
370
    25
100
AcDbLine
 10
-479.0648442539
 20
358.8926590709
 30
0.0
 11
-479.0648442539
 21
109.8477114457
 31
0.0
  0
LINE
  5
3DD
330
277
100
AcDbEntity
  8
0
  6
Continuous
 62
     7
370
    25
100
AcDbLine
 10
-202.5860928099
 20
199.2848732096
 30
0.0
 11
-479.0648442539
 21
358.8926590709
 31
0.0
  0
LINE
  5
3DE
330
277
100
AcDbEntity
  8
0
  6
Continuous
 62
     7
370
    25
100
AcDbLine
 10
-479.0648442539
 20
109.8477114457
 30
0.0
 11
191.9794910921
 21
-277.5379376141
 31
0.0
  0
LINE
  5
3DF
330
277
100
AcDbEntity
  8
0
  6
Continuous
 62
     7
370
    25
100
AcDbLine
 10
-202.5860928099
 20
199.2848732096
 30
0.0
 11
-193.6750647174
 21
204.4291002295
 31
0.0
  0
LINE
  5
3E0
330
277
100
AcDbEntity
  8
0
  6
Continuous
 62
     7
370
    25
100
AcDbLine
 10
-479.0648442539
 20
367.0567401891
 30
0.0
 11
-477.2248839732
 21
368.1189266499
 31
0.0
  0
LINE
  5
3E1
330
277
100
AcDbEntity
  8
0
  6
Continuous
 62
     8
370
    25
100
AcDbLine
 10
-178.5444622496
 20
449.0936531816
 30
0.0
 11
-178.5444622496
 21
449.9362848458
 31
0.0
  0
LINE
  5
3E2
330
277
100
AcDbEntity
  8
0
  6
Continuous
 62
     8
370
    25
100
AcDbLine
 10
-178.5444622496
 20
524.976133328
 30
0.0
 11
-178.5444622496
 21
526.1751058236
 31
0.0
  0
LINE
  5
3E3
330
277
100
AcDbEntity
  8
0
  6
Continuous
 62
     8
370
    25
100
AcDbLine
 10
-179.8172544557
 20
527.5632384738
 30
0.0
 11
-179.8172544557
 21
527.8895628584
 31
0.0
  0
ARC
  5
3E4
330
277
100
AcDbEntity
  8
0
  6
Continuous
 62
     7
370
    25
100
AcDbCircle
 10
-153.2598834936
 20
515.1261511576
 30
0.0
 40
4.112737295220267
100
AcDbArc
 50
168.7427253516
 51
240.5710930713
  0
ARC
  5
3E5
330
277
100
AcDbEntity
  8
0
  6
Continuous
 62
     7
370
    25
100
AcDbCircle
 10
-147.6326351838
 20
481.699669211
 30
0.0
 40
4.112684626998319
100
AcDbArc
 50
179.4285269296
 51
251.2523714442
  0
ARC
  5
3E6
330
277
100
AcDbEntity
  8
0
  6
Continuous
 62
     7
370
    25
100
AcDbCircle
 10
-153.2598834936
 20
462.8675391969
 30
0.0
 40
4.112737295202002
100
AcDbArc
 50
168.7427253509
 51
240.5710930714
  0
ARC
  5
3E7
330
277
100
AcDbEntity
  8
0
  6
Continuous
 62
     7
370
    25
100
AcDbCircle
 10
-204.0003063723
 20
516.7985052334
 30
0.0
 40
4.611065723736135
100
AcDbArc
 50
242.6096722366
 51
297.3903277634
  0
ARC
  5
3E8
330
277
100
AcDbEntity
  8
0
  6
Continuous
 62
     7
370
    25
100
AcDbCircle
 10
-204.0003063723
 20
439.7170525914
 30
0.0
 40
4.611065723736009
100
AcDbArc
 50
242.6096722366
 51
297.3903277634
  0
ARC
  5
3E9
330
277
100
AcDbEntity
  8
0
  6
Continuous
 62
     7
370
    25
100
AcDbCircle
 10
-204.0003063723
 20
515.0767925811
 30
0.0
 40
1.844426289493172
100
AcDbArc
 50
242.6096722366
 51
297.3903277634
  0
ARC
  5
3EA
330
277
100
AcDbEntity
  8
0
  6
Continuous
 62
     7
370
    25
100
AcDbCircle
 10
-188.8228956656
 20
482.861063478
 30
0.0
 40
2.366830288459142
100
AcDbArc
 50
65.3810279525
 51
125.9294304766
  0
ARC
  5
3EB
330
277
100
AcDbEntity
  8
0
  6
Continuous
 62
     7
370
    25
100
AcDbCircle
 10
-180.0457514181
 20
527.3584944295
 30
0.0
 40
0.5781388569863288
100
AcDbArc
 50
0.2878271118
 51
66.7197732297
  0
ARC
  5
3EC
330
277
100
AcDbEntity
  8
0
  6
Continuous
 62
     7
370
    25
100
AcDbCircle
 10
-179.00924333
 20
527.3997179913
 30
0.0
 40
1.309845950502887
100
AcDbArc
 50
290.7834207995
 51
69.2165792005
  0
ARC
  5
3ED
330
277
100
AcDbEntity
  8
0
  6
Continuous
 62
     7
370
    25
100
AcDbCircle
 10
-179.1671537806
 20
450.46798448
 30
0.0
 40
1.508817835481299
100
AcDbArc
 50
294.3746582936
 51
354.3052007488
  0
ARC
  5
3EE
330
277
100
AcDbEntity
  8
0
  6
Continuous
 62
     7
370
    25
100
AcDbCircle
 10
197.848477376
 20
58.6835479859
 30
0.0
 40
15.37021907911746
100
AcDbArc
 50
242.6096722366
 51
297.3903277634
  0
ARC
  5
3EF
330
277
100
AcDbEntity
  8
0
  6
Continuous
 62
     7
370
    25
100
AcDbCircle
 10
197.848477376
 20
-3.8634782046
 30
0.0
 40
15.37021907911752
100
AcDbArc
 50
242.6096722366
 51
297.3903277634
  0
ARC
  5
3F0
330
277
100
AcDbEntity
  8
0
  6
Continuous
 62
     7
370
    25
100
AcDbCircle
 10
-478.8983941263
 20
374.8643683897
 30
0.0
 40
5.029392784937949
100
AcDbArc
 50
185.6947992512
 51
245.6253417064
  0
ARC
  5
3F1
330
277
100
AcDbEntity
  8
0
  6
Continuous
 62
     7
370
    25
100
AcDbCircle
 10
-248.7637531488
 20
388.9105026929
 30
0.0
 40
2.491808154351014
100
AcDbArc
 50
305.3793155066
 51
5.9328648868
  0
ARC
  5
3F2
330
277
100
AcDbEntity
  8
0
  6
Continuous
 62
     7
370
    25
100
AcDbCircle
 10
199.050558904
 20
-14.8458791394
 30
0.0
 40
15.37021907911713
100
AcDbArc
 50
242.6096722366
 51
297.3903277634
  0
ARC
  5
3F3
330
277
100
AcDbEntity
  8
0
  6
Continuous
 62
     7
370
    25
100
AcDbCircle
 10
199.050558904
 20
-263.8908267646
 30
0.0
 40
15.37021907911775
100
AcDbArc
 50
242.6096722366
 51
297.3903277634
  0
ARC
  5
3F4
330
277
100
AcDbEntity
  8
0
  6
Continuous
 62
     7
370
    25
100
AcDbCircle
 10
-476.9892058171
 20
114.4288157739
 30
0.0
 40
5.029392784937213
100
AcDbArc
 50
185.6947992512
 51
245.6253417064
  0
VIEWPORT
  5
3FB
330
277
100
AcDbEntity
  8
0
100
AcDbViewport
 10
0.0
 20
0.0
 30
0.0
 40
205.6
 41
156.0
 68
     1
 69
     1
 12
0.0
 22
200.0
 13
0.0
 23
0.0
 14
10.0
 24
10.0
 15
10.0
 25
10.0
 16
0.0
 26
0.0
 36
1.0
 17
0.0
 27
0.0
 37
0.0
 42
50.0
 43
0.0
 44
0.0
 45
751.7955642023
 50
0.0
 51
0.0
 72
   100
 90
   557152
  1

281
     0
 71
     1
 74
     0
110
0.0
120
0.0
130
0.0
111
1.0
121
0.0
131
0.0
112
0.0
122
1.0
132
0.0
 79
     0
146
0.0
  0
ENDBLK
  5
27A
330
277
100
AcDbEntity
  8
0
100
AcDbBlockEnd
  0
ENDSEC
  0
SECTION
  2
ENTITIES
  0
LINE
  5
95
330
1F
100
AcDbEntity
  8
0
  6
Continuous
 62
     7
370
    25
100
AcDbLine
 10
-467.5
 20
400.0
 30
0.0
 11
-485.7
 21
400.0
 31
0.0
  0
LINE
  5
96
330
1F
100
AcDbEntity
  8
0
  6
Continuous
 62
     7
370
    25
100
AcDbLine
 10
-467.5
 20
400.0
 30
0.0
 11
-467.5
 21
394.5
 31
0.0
  0
LINE
  5
97
330
1F
100
AcDbEntity
  8
0
  6
Continuous
 62
     7
370
    25
100
AcDbLine
 10
-467.5
 20
317.9
 30
0.0
 11
-467.5
 21
305.0
 31
0.0
  0
LINE
  5
98
330
1F
100
AcDbEntity
  8
0
  6
Continuous
 62
     7
370
    25
100
AcDbLine
 10
-485.7
 20
400.0
 30
0.0
 11
-485.7
 21
0.0
 31
0.0
  0
LINE
  5
99
330
1F
100
AcDbEntity
  8
0
  6
Continuous
 62
     7
370
    25
100
AcDbLine
 10
467.5
 20
400.0
 30
0.0
 11
467.5
 21
394.5
 31
0.0
  0
LINE
  5
9A
330
1F
100
AcDbEntity
  8
0
  6
Continuous
 62
     7
370
    25
100
AcDbLine
 10
467.5
 20
305.0
 30
0.0
 11
467.5
 21
317.9
 31
0.0
  0
LINE
  5
9B
330
1F
100
AcDbEntity
  8
0
  6
Continuous
 62
     7
370
    25
100
AcDbLine
 10
467.5
 20
400.0
 30
0.0
 11
485.7
 21
400.0
 31
0.0
  0
LINE
  5
9C
330
1F
100
AcDbEntity
  8
0
  6
Continuous
 62
     7
370
    25
100
AcDbLine
 10
485.7
 20
400.0
 30
0.0
 11
485.7
 21
0.0
 31
0.0
  0
LINE
  5
9D
330
1F
100
AcDbEntity
  8
0
  6
Continuous
 62
     7
370
    25
100
AcDbLine
 10
-475.7
 20
394.5
 30
0.0
 11
-475.7
 21
317.9
 31
0.0
  0
LINE
  5
9E
330
1F
100
AcDbEntity
  8
0
  6
Continuous
 62
     7
370
    25
100
AcDbLine
 10
484.3
 20
394.5
 30
0.0
 11
484.3
 21
317.9
 31
0.0
  0
LINE
  5
9F
330
1F
100
AcDbEntity
  8
0
  6
Continuous
 62
     7
370
    25
100
AcDbLine
 10
474.3
 20
317.9
 30
0.0
 11
474.3
 21
394.5
 31
0.0
  0
LINE
  5
A0
330
1F
100
AcDbEntity
  8
0
  6
Continuous
 62
     7
370
    25
100
AcDbLine
 10
484.3
 20
317.9
 30
0.0
 11
-485.7
 21
317.9
 31
0.0
  0
LINE
  5
A1
330
1F
100
AcDbEntity
  8
0
  6
Continuous
 62
     7
370
    25
100
AcDbLine
 10
-485.7
 20
394.5
 30
0.0
 11
484.3
 21
394.5
 31
0.0
  0
LINE
  5
A2
330
1F
100
AcDbEntity
  8
0
  6
Continuous
 62
     7
370
    25
100
AcDbLine
 10
-473.3
 20
305.0
 30
0.0
 11
-473.3
 21
0.0
 31
0.0
  0
LINE
  5
A3
330
1F
100
AcDbEntity
  8
0
  6
Continuous
 62
     7
370
    25
100
AcDbLine
 10
-483.3
 20
0.0
 30
0.0
 11
-483.3
 21
305.0
 31
0.0
  0
LINE
  5
A4
330
1F
100
AcDbEntity
  8
0
  6
Continuous
 62
     7
370
    25
100
AcDbLine
 10
-82.3
 20
305.0
 30
0.0
 11
-483.3
 21
305.0
 31
0.0
  0
LINE
  5
A5
330
1F
100
AcDbEntity
  8
0
  6
Continuous
 62
     7
370
    25
100
AcDbLine
 10
475.7
 20
0.0
 30
0.0
 11
475.7
 21
305.0
 31
0.0
  0
LINE
  5
A6
330
1F
100
AcDbEntity
  8
0
  6
Continuous
 62
     7
370
    25
100
AcDbLine
 10
485.7
 20
305.0
 30
0.0
 11
84.7
 21
305.0
 31
0.0
  0
LINE
  5
A7
330
1F
100
AcDbEntity
  8
0
  6
Continuous
 62
     7
370
    25
100
AcDbLine
 10
-485.7
 20
0.0
 30
0.0
 11
485.7
 21
0.0
 31
0.0
  0
ARC
  5
A8
330
1F
100
AcDbEntity
  8
0
  6
Continuous
 62
     7
370
    25
100
AcDbCircle
 10
1.2
 20
469.30625
 30
0.0
 40
184.3062499999995
100
AcDbArc
 50
243.0604435409
 51
296.9395564591
  0
LINE
  5
118
330
1B
100
AcDbEntity
 67
     1
  8
0
  6
Continuous
 62
     7
370
    25
100
AcDbLine
 10
462.5
 20
212.0
 30
0.0
 11
462.5
 21
310.0
 31
0.0
  0
LINE
  5
119
330
1B
100
AcDbEntity
 67
     1
  8
0
  6
Continuous
 62
     7
370
    25
100
AcDbLine
 10
429.6
 20
232.7316441283
 30
0.0
 11
445.6
 21
232.7316441283
 31
0.0
  0
LINE
  5
11A
330
1B
100
AcDbEntity
 67
     1
  8
0
  6
Continuous
 62
     7
370
    25
100
AcDbLine
 10
445.6
 20
226.7316441283
 30
0.0
 11
429.6
 21
226.7316441283
 31
0.0
  0
LINE
  5
11B
330
1B
100
AcDbEntity
 67
     1
  8
0
  6
Continuous
 62
     7
370
    25
100
AcDbLine
 10
434.6
 20
256.7316441283
 30
0.0
 11
434.6
 21
266.7316441283
 31
0.0
  0
LINE
  5
11C
330
1B
100
AcDbEntity
 67
     1
  8
0
  6
Continuous
 62
     7
370
    25
100
AcDbLine
 10
440.6
 20
266.7316441283
 30
0.0
 11
440.6
 21
256.7316441283
 31
0.0
  0
LINE
  5
11D
330
1B
100
AcDbEntity
 67
     1
  8
0
  6
Continuous
 62
     7
370
    25
100
AcDbLine
 10
429.6
 20
296.7316441283
 30
0.0
 11
445.6
 21
296.7316441283
 31
0.0
  0
LINE
  5
11E
330
1B
100
AcDbEntity
 67
     1
  8
0
  6
Continuous
 62
     7
370
    25
100
AcDbLine
 10
445.6
 20
290.7316441283
 30
0.0
 11
429.6
 21
290.7316441283
 31
0.0
  0
LINE
  5
11F
330
1B
100
AcDbEntity
 67
     1
  8
0
  6
Continuous
 62
     7
370
    25
100
AcDbLine
 10
414.6
 20
306.7316441283
 30
0.0
 11
462.5
 21
306.7316441283
 31
0.0
  0
LINE
  5
120
330
1B
100
AcDbEntity
 67
     1
  8
0
  6
Continuous
 62
     7
370
    25
100
AcDbLine
 10
414.6
 20
216.7316441283
 30
0.0
 11
414.6
 21
306.7316441283
 31
0.0
  0
LINE
  5
121
330
1B
100
AcDbEntity
 67
     1
  8
0
  6
Continuous
 62
     7
370
    25
100
AcDbLine
 10
462.5
 20
216.7316441283
 30
0.0
 11
414.6
 21
216.7316441283
 31
0.0
  0
LINE
  5
122
330
1B
100
AcDbEntity
 67
     1
  8
0
  6
Continuous
 62
     7
370
    25
100
AcDbLine
 10
-458.2
 20
47.5
 30
0.0
 11
-458.2
 21
31.5
 31
0.0
  0
LINE
  5
123
330
1B
100
AcDbEntity
 67
     1
  8
0
  6
Continuous
 62
     7
370
    25
100
AcDbLine
 10
-458.2
 20
47.5
 30
0.0
 11
454.8
 21
47.5
 31
0.0
  0
LINE
  5
124
330
1B
100
AcDbEntity
 67
     1
  8
0
  6
Continuous
 62
     7
370
    25
100
AcDbLine
 10
454.8
 20
47.5
 30
0.0
 11
454.8
 21
31.5
 31
0.0
  0
LINE
  5
125
330
1B
100
AcDbEntity
 67
     1
  8
0
  6
Continuous
 62
     7
370
    25
100
AcDbLine
 10
-458.2
 20
31.5
 30
0.0
 11
454.8
 21
31.5
 31
0.0
  0
LINE
  5
126
330
1B
100
AcDbEntity
 67
     1
  8
0
  6
Continuous
 62
     7
370
    25
100
AcDbLine
 10
-485.7
 20
0.0
 30
0.0
 11
485.7
 21
0.0
 31
0.0
  0
LINE
  5
127
330
1B
100
AcDbEntity
 67
     1
  8
0
  6
Continuous
 62
     7
370
    25
100
AcDbLine
 10
467.5
 20
0.0
 30
0.0
 11
467.5
 21
400.0
 31
0.0
  0
LINE
  5
128
330
1B
100
AcDbEntity
 67
     1
  8
0
  6
Continuous
 62
     7
370
    25
100
AcDbLine
 10
467.5
 20
400.0
 30
0.0
 11
485.7
 21
400.0
 31
0.0
  0
LINE
  5
129
330
1B
100
AcDbEntity
 67
     1
  8
0
  6
Continuous
 62
     7
370
    25
100
AcDbLine
 10
485.7
 20
0.0
 30
0.0
 11
485.7
 21
400.0
 31
0.0
  0
LINE
  5
12A
330
1B
100
AcDbEntity
 67
     1
  8
0
  6
Continuous
 62
     7
370
    25
100
AcDbLine
 10
462.5
 20
308.2
 30
0.0
 11
467.5
 21
308.2
 31
0.0
  0
LINE
  5
12B
330
1B
100
AcDbEntity
 67
     1
  8
0
  6
Continuous
 62
     7
370
    25
100
AcDbLine
 10
467.5
 20
213.8
 30
0.0
 11
462.5
 21
213.8
 31
0.0
  0
LINE
  5
12C
330
1B
100
AcDbEntity
 67
     1
  8
0
  6
Continuous
 62
     7
370
    25
100
AcDbLine
 10
465.5
 20
308.2
 30
0.0
 11
465.5
 21
213.8
 31
0.0
  0
LINE
  5
12D
330
1B
100
AcDbEntity
 67
     1
  8
0
  6
Continuous
 62
     7
370
    25
100
AcDbLine
 10
464.3
 20
310.0
 30
0.0
 11
462.5
 21
310.0
 31
0.0
  0
LINE
  5
12E
330
1B
100
AcDbEntity
 67
     1
  8
0
  6
Continuous
 62
     7
370
    25
100
AcDbLine
 10
464.3
 20
310.0
 30
0.0
 11
464.3
 21
308.2
 31
0.0
  0
LINE
  5
12F
330
1B
100
AcDbEntity
 67
     1
  8
0
  6
Continuous
 62
     7
370
    25
100
AcDbLine
 10
464.3
 20
212.0
 30
0.0
 11
462.5
 21
212.0
 31
0.0
  0
LINE
  5
130
330
1B
100
AcDbEntity
 67
     1
  8
0
  6
Continuous
 62
     7
370
    25
100
AcDbLine
 10
464.3
 20
213.8
 30
0.0
 11
464.3
 21
212.0
 31
0.0
  0
LINE
  5
131
330
1B
100
AcDbEntity
 67
     1
  8
0
  6
Continuous
 62
     7
370
    25
100
AcDbLine
 10
-462.5
 20
310.0
 30
0.0
 11
-462.5
 21
212.0
 31
0.0
  0
LINE
  5
132
330
1B
100
AcDbEntity
 67
     1
  8
0
  6
Continuous
 62
     7
370
    25
100
AcDbLine
 10
-462.5
 20
213.8
 30
0.0
 11
-467.5
 21
213.8
 31
0.0
  0
LINE
  5
133
330
1B
100
AcDbEntity
 67
     1
  8
0
  6
Continuous
 62
     7
370
    25
100
AcDbLine
 10
-465.5
 20
213.8
 30
0.0
 11
-465.5
 21
308.2
 31
0.0
  0
LINE
  5
134
330
1B
100
AcDbEntity
 67
     1
  8
0
  6
Continuous
 62
     7
370
    25
100
AcDbLine
 10
-467.5
 20
308.2
 30
0.0
 11
-462.5
 21
308.2
 31
0.0
  0
LINE
  5
135
330
1B
100
AcDbEntity
 67
     1
  8
0
  6
Continuous
 62
     7
370
    25
100
AcDbLine
 10
-464.3
 20
310.0
 30
0.0
 11
-462.5
 21
310.0
 31
0.0
  0
LINE
  5
136
330
1B
100
AcDbEntity
 67
     1
  8
0
  6
Continuous
 62
     7
370
    25
100
AcDbLine
 10
-464.3
 20
308.2
 30
0.0
 11
-464.3
 21
310.0
 31
0.0
  0
LINE
  5
137
330
1B
100
AcDbEntity
 67
     1
  8
0
  6
Continuous
 62
     7
370
    25
100
AcDbLine
 10
-464.3
 20
212.0
 30
0.0
 11
-462.5
 21
212.0
 31
0.0
  0
LINE
  5
138
330
1B
100
AcDbEntity
 67
     1
  8
0
  6
Continuous
 62
     7
370
    25
100
AcDbLine
 10
-464.3
 20
212.0
 30
0.0
 11
-464.3
 21
213.8
 31
0.0
  0
LINE
  5
139
330
1B
100
AcDbEntity
 67
     1
  8
0
  6
Continuous
 62
     7
370
    25
100
AcDbLine
 10
-467.5
 20
18.2
 30
0.0
 11
467.5
 21
18.2
 31
0.0
  0
LINE
  5
13A
330
1B
100
AcDbEntity
 67
     1
  8
0
  6
Continuous
 62
     7
370
    25
100
AcDbLine
 10
-467.5
 20
400.0
 30
0.0
 11
-485.7
 21
400.0
 31
0.0
  0
LINE
  5
13B
330
1B
100
AcDbEntity
 67
     1
  8
0
  6
Continuous
 62
     7
370
    25
100
AcDbLine
 10
-467.5
 20
0.0
 30
0.0
 11
-467.5
 21
400.0
 31
0.0
  0
LINE
  5
13C
330
1B
100
AcDbEntity
 67
     1
  8
0
  6
Continuous
 62
     7
370
    25
100
AcDbLine
 10
-485.7
 20
0.0
 30
0.0
 11
-485.7
 21
400.0
 31
0.0
  0
LINE
  5
13D
330
1B
100
AcDbEntity
 67
     1
  8
0
  6
Continuous
 62
     7
370
    25
100
AcDbLine
 10
467.5
 20
394.5
 30
0.0
 11
-467.5
 21
394.5
 31
0.0
  0
LINE
  5
13E
330
1B
100
AcDbEntity
 67
     1
  8
0
  6
Continuous
 62
     7
370
    25
100
AcDbLine
 10
-414.6
 20
306.7316441283
 30
0.0
 11
-414.6
 21
216.7316441283
 31
0.0
  0
LINE
  5
13F
330
1B
100
AcDbEntity
 67
     1
  8
0
  6
Continuous
 62
     7
370
    25
100
AcDbLine
 10
-414.6
 20
216.7316441283
 30
0.0
 11
-462.5
 21
216.7316441283
 31
0.0
  0
LINE
  5
140
330
1B
100
AcDbEntity
 67
     1
  8
0
  6
Continuous
 62
     7
370
    25
100
AcDbLine
 10
-429.6
 20
290.7316441283
 30
0.0
 11
-445.6
 21
290.7316441283
 31
0.0
  0
LINE
  5
141
330
1B
100
AcDbEntity
 67
     1
  8
0
  6
Continuous
 62
     7
370
    25
100
AcDbLine
 10
-445.6
 20
296.7316441283
 30
0.0
 11
-429.6
 21
296.7316441283
 31
0.0
  0
LINE
  5
142
330
1B
100
AcDbEntity
 67
     1
  8
0
  6
Continuous
 62
     7
370
    25
100
AcDbLine
 10
-434.6
 20
266.7316441283
 30
0.0
 11
-434.6
 21
256.7316441283
 31
0.0
  0
LINE
  5
143
330
1B
100
AcDbEntity
 67
     1
  8
0
  6
Continuous
 62
     7
370
    25
100
AcDbLine
 10
-440.6
 20
256.7316441283
 30
0.0
 11
-440.6
 21
266.7316441283
 31
0.0
  0
LINE
  5
144
330
1B
100
AcDbEntity
 67
     1
  8
0
  6
Continuous
 62
     7
370
    25
100
AcDbLine
 10
-429.6
 20
226.7316441283
 30
0.0
 11
-445.6
 21
226.7316441283
 31
0.0
  0
LINE
  5
145
330
1B
100
AcDbEntity
 67
     1
  8
0
  6
Continuous
 62
     7
370
    25
100
AcDbLine
 10
-445.6
 20
232.7316441283
 30
0.0
 11
-429.6
 21
232.7316441283
 31
0.0
  0
LINE
  5
146
330
1B
100
AcDbEntity
 67
     1
  8
0
  6
Continuous
 62
     7
370
    25
100
AcDbLine
 10
-462.5
 20
306.7316441283
 30
0.0
 11
-414.6
 21
306.7316441283
 31
0.0
  0
LINE
  5
147
330
1B
100
AcDbEntity
 67
     1
  8
0
  6
Continuous
 62
     7
370
    25
100
AcDbLine
 10
-425.7999687854
 20
199.0
 30
0.0
 11
-425.7999687854
 21
49.0
 31
0.0
  0
LINE
  5
148
330
1B
100
AcDbEntity
 67
     1
  8
0
  6
Continuous
 62
     7
370
    25
100
AcDbLine
 10
-452.7
 20
199.0
 30
0.0
 11
-224.7
 21
199.0
 31
0.0
  0
LINE
  5
149
330
1B
100
AcDbEntity
 67
     1
  8
0
  6
Continuous
 62
     7
370
    25
100
AcDbLine
 10
-406.7999687854
 20
199.0
 30
0.0
 11
-406.7999687854
 21
49.0
 31
0.0
  0
LINE
  5
14A
330
1B
100
AcDbEntity
 67
     1
  8
0
  6
Continuous
 62
     7
370
    25
100
AcDbLine
 10
-425.7999687854
 20
49.0
 30
0.0
 11
-406.7999687854
 21
49.0
 31
0.0
  0
LINE
  5
14B
330
1B
100
AcDbEntity
 67
     1
  8
0
  6
Continuous
 62
     7
370
    25
100
AcDbLine
 10
-458.2
 20
33.0
 30
0.0
 11
-459.7
 21
33.0
 31
0.0
  0
LINE
  5
14C
330
1B
100
AcDbEntity
 67
     1
  8
0
  6
Continuous
 62
     7
370
    25
100
AcDbLine
 10
-459.7
 20
33.0
 30
0.0
 11
-459.7
 21
116.0
 31
0.0
  0
LINE
  5
14D
330
1B
100
AcDbEntity
 67
     1
  8
0
  6
Continuous
 62
     7
370
    25
100
AcDbLine
 10
-459.7
 20
116.0
 30
0.0
 11
-452.7
 21
116.0
 31
0.0
  0
LINE
  5
14E
330
1B
100
AcDbEntity
 67
     1
  8
0
  6
Continuous
 62
     7
370
    25
100
AcDbLine
 10
-452.7
 20
199.0
 30
0.0
 11
-452.7
 21
116.0
 31
0.0
  0
LINE
  5
14F
330
1B
100
AcDbEntity
 67
     1
  8
0
  6
Continuous
 62
     7
370
    25
100
AcDbLine
 10
403.3999687854
 20
199.0
 30
0.0
 11
403.3999687854
 21
49.0
 31
0.0
  0
LINE
  5
150
330
1B
100
AcDbEntity
 67
     1
  8
0
  6
Continuous
 62
     7
370
    25
100
AcDbLine
 10
221.3
 20
199.0
 30
0.0
 11
449.3
 21
199.0
 31
0.0
  0
LINE
  5
151
330
1B
100
AcDbEntity
 67
     1
  8
0
  6
Continuous
 62
     7
370
    25
100
AcDbLine
 10
422.3999687854
 20
199.0
 30
0.0
 11
422.3999687854
 21
49.0
 31
0.0
  0
LINE
  5
152
330
1B
100
AcDbEntity
 67
     1
  8
0
  6
Continuous
 62
     7
370
    25
100
AcDbLine
 10
422.3999687854
 20
49.0
 30
0.0
 11
403.3999687854
 21
49.0
 31
0.0
  0
LINE
  5
153
330
1B
100
AcDbEntity
 67
     1
  8
0
  6
Continuous
 62
     7
370
    25
100
AcDbLine
 10
449.3
 20
199.0
 30
0.0
 11
449.3
 21
116.0
 31
0.0
  0
LINE
  5
154
330
1B
100
AcDbEntity
 67
     1
  8
0
  6
Continuous
 62
     7
370
    25
100
AcDbLine
 10
456.3
 20
116.0
 30
0.0
 11
449.3
 21
116.0
 31
0.0
  0
LINE
  5
155
330
1B
100
AcDbEntity
 67
     1
  8
0
  6
Continuous
 62
     7
370
    25
100
AcDbLine
 10
456.3
 20
33.0
 30
0.0
 11
456.3
 21
116.0
 31
0.0
  0
LINE
  5
156
330
1B
100
AcDbEntity
 67
     1
  8
0
  6
Continuous
 62
     7
370
    25
100
AcDbLine
 10
454.8
 20
33.0
 30
0.0
 11
456.3
 21
33.0
 31
0.0
  0
LINE
  5
157
330
1B
100
AcDbEntity
 67
     1
  8
0
  6
Continuous
 62
     7
370
    25
100
AcDbLine
 10
-424.7
 20
47.5
 30
0.0
 11
-424.7
 21
49.0
 31
0.0
  0
LINE
  5
158
330
1B
100
AcDbEntity
 67
     1
  8
0
  6
Continuous
 62
     7
370
    25
100
AcDbLine
 10
421.3
 20
49.0
 30
0.0
 11
421.3
 21
47.5
 31
0.0
  0
LINE
  5
159
330
1B
100
AcDbEntity
 67
     1
  8
0
  6
Continuous
 62
     7
370
    25
100
AcDbLine
 10
-44.7
 20
109.0
 30
0.0
 11
41.3
 21
109.0
 31
0.0
  0
LINE
  5
15A
330
1B
100
AcDbEntity
 67
     1
  8
0
  6
Continuous
 62
     7
370
    25
100
AcDbLine
 10
414.6
 20
284.0
 30
0.0
 11
-414.6
 21
284.0
 31
0.0
  0
LINE
  5
15B
330
1B
100
AcDbEntity
 67
     1
  8
0
  6
Continuous
 62
     7
370
    25
100
AcDbLine
 10
-467.5
 20
344.0
 30
0.0
 11
467.5
 21
344.0
 31
0.0
  0
ARC
  5
15C
330
1B
100
AcDbEntity
 67
     1
  8
0
  6
Continuous
 62
     7
370
    25
100
AcDbCircle
 10
429.6
 20
229.7316441283
 30
0.0
 40
3.000000000000085
100
AcDbArc
 50
90.0
 51
270.0
  0
ARC
  5
15D
330
1B
100
AcDbEntity
 67
     1
  8
0
  6
Continuous
 62
     7
370
    25
100
AcDbCircle
 10
445.6
 20
229.7316441283
 30
0.0
 40
3.000000000000085
100
AcDbArc
 50
270.0
 51
90.0
  0
ARC
  5
15E
330
1B
100
AcDbEntity
 67
     1
  8
0
  6
Continuous
 62
     7
370
    25
100
AcDbCircle
 10
437.6
 20
256.7316441283
 30
0.0
 40
3.0
100
AcDbArc
 50
180.0
 51
0.0
  0
ARC
  5
15F
330
1B
100
AcDbEntity
 67
     1
  8
0
  6
Continuous
 62
     7
370
    25
100
AcDbCircle
 10
437.6
 20
266.7316441283
 30
0.0
 40
3.000000000000057
100
AcDbArc
 50
0.0
 51
180.0
  0
ARC
  5
160
330
1B
100
AcDbEntity
 67
     1
  8
0
  6
Continuous
 62
     7
370
    25
100
AcDbCircle
 10
429.6
 20
293.7316441283
 30
0.0
 40
3.0
100
AcDbArc
 50
90.0
 51
270.0
  0
ARC
  5
161
330
1B
100
AcDbEntity
 67
     1
  8
0
  6
Continuous
 62
     7
370
    25
100
AcDbCircle
 10
445.6
 20
293.7316441283
 30
0.0
 40
3.0
100
AcDbArc
 50
270.0
 51
90.0
  0
ARC
  5
162
330
1B
100
AcDbEntity
 67
     1
  8
0
  6
Continuous
 62
     7
370
    25
100
AcDbCircle
 10
-429.6
 20
293.7316441283
 30
0.0
 40
3.0
100
AcDbArc
 50
270.0
 51
90.0
  0
ARC
  5
163
330
1B
100
AcDbEntity
 67
     1
  8
0
  6
Continuous
 62
     7
370
    25
100
AcDbCircle
 10
-437.6
 20
266.7316441283
 30
0.0
 40
3.0
100
AcDbArc
 50
0.0
 51
180.0
  0
ARC
  5
164
330
1B
100
AcDbEntity
 67
     1
  8
0
  6
Continuous
 62
     7
370
    25
100
AcDbCircle
 10
-437.6
 20
256.7316441283
 30
0.0
 40
3.0
100
AcDbArc
 50
180.0
 51
0.0
  0
ARC
  5
165
330
1B
100
AcDbEntity
 67
     1
  8
0
  6
Continuous
 62
     7
370
    25
100
AcDbCircle
 10
-429.6
 20
229.7316441283
 30
0.0
 40
3.0
100
AcDbArc
 50
270.0
 51
90.0
  0
ARC
  5
166
330
1B
100
AcDbEntity
 67
     1
  8
0
  6
Continuous
 62
     7
370
    25
100
AcDbCircle
 10
-445.6
 20
229.7316441283
 30
0.0
 40
3.0
100
AcDbArc
 50
90.0
 51
270.0
  0
ARC
  5
167
330
1B
100
AcDbEntity
 67
     1
  8
0
  6
Continuous
 62
     7
370
    25
100
AcDbCircle
 10
-445.6
 20
293.7316441283
 30
0.0
 40
3.0
100
AcDbArc
 50
90.0
 51
270.0
  0
ARC
  5
168
330
1B
100
AcDbEntity
 67
     1
  8
0
  6
Continuous
 62
     7
370
    25
100
AcDbCircle
 10
-426.7
 20
49.5
 30
0.0
 40
2.000000000000123
100
AcDbArc
 50
270.0
 51
345.5224878141
  0
ARC
  5
169
330
1B
100
AcDbEntity
 67
     1
  8
0
  6
Continuous
 62
     7
370
    25
100
AcDbCircle
 10
-454.7
 20
204.5
 30
0.0
 40
7.999999999999925
100
AcDbArc
 50
316.5674634422
 51
284.4775121859
  0
ARC
  5
16A
330
1B
100
AcDbEntity
 67
     1
  8
0
  6
Continuous
 62
     7
370
    25
100
AcDbCircle
 10
423.3
 20
49.5
 30
0.0
 40
2.000000000000036
100
AcDbArc
 50
194.4775121859
 51
270.0
  0
ARC
  5
16B
330
1B
100
AcDbEntity
 67
     1
  8
0
  6
Continuous
 62
     7
370
    25
100
AcDbCircle
 10
451.3
 20
204.5
 30
0.0
 40
8.000000000000032
100
AcDbArc
 50
255.5224878141
 51
223.4325365578
  0
ARC
  5
16C
330
1B
100
AcDbEntity
 67
     1
  8
0
  6
Continuous
 62
     7
370
    25
100
AcDbCircle
 10
41.3
 20
196.5
 30
0.0
 40
87.5
100
AcDbArc
 50
270.0
 51
323.1301023542
  0
ARC
  5
16D
330
1B
100
AcDbEntity
 67
     1
  8
0
  6
Continuous
 62
     7
370
    25
100
AcDbCircle
 10
-224.7
 20
61.5
 30
0.0
 40
137.5000000000006
100
AcDbArc
 50
36.8698976458
 51
90.0
  0
ARC
  5
16E
330
1B
100
AcDbEntity
 67
     1
  8
0
  6
Continuous
 62
     7
370
    25
100
AcDbCircle
 10
221.3
 20
61.5
 30
0.0
 40
137.5
100
AcDbArc
 50
90.0
 51
143.1301023542
  0
ARC
  5
16F
330
1B
100
AcDbEntity
 67
     1
  8
0
  6
Continuous
 62
     7
370
    25
100
AcDbCircle
 10
-44.7
 20
196.5
 30
0.0
 40
87.49999999999999
100
AcDbArc
 50
216.8698976458
 51
270.0
  0
VIEWPORT
  5
3F5
330
1B
100
AcDbEntity
 67
     1
  8
0
100
AcDbViewport
 10
0.0
 20
0.0
 30
0.0
 40
205.6
 41
156.0
 68
     1
 69
     1
 12
0.0
 22
200.0
 13
0.0
 23
0.0
 14
10.0
 24
10.0
 15
10.0
 25
10.0
 16
0.0
 26
0.0
 36
1.0
 17
0.0
 27
0.0
 37
0.0
 42
50.0
 43
0.0
 44
0.0
 45
751.7955642023
 50
0.0
 51
0.0
 72
   100
 90
   557152
  1

281
     0
 71
     1
 74
     0
110
0.0
120
0.0
130
0.0
111
1.0
121
0.0
131
0.0
112
0.0
122
1.0
132
0.0
 79
     0
146
0.0
  0
ENDSEC
  0
SECTION
  2
OBJECTS
  0
DICTIONARY
  5
C
330
0
100
AcDbDictionary
281
     1
  3
ACAD_GROUP
350
D
  3
ACAD_LAYOUT
350
1A
  3
ACAD_MLINESTYLE
350
17
  3
ACAD_PLOTSETTINGS
350
19
  3
ACAD_PLOTSTYLENAME
350
E
  3
ACAD_SCALELIST
350
47
  0
DICTIONARY
  5
D
102
{ACAD_REACTORS
330
C
102
}
330
C
100
AcDbDictionary
281
     1
  0
DICTIONARY
  5
1A
102
{ACAD_REACTORS
330
C
102
}
330
C
100
AcDbDictionary
281
     1
  3
_Back
350
1E
  3
_Isometric
350
278
  3
_Left
350
26
  3
_Top
350
18D
  3
Model
350
22
  0
DICTIONARY
  5
17
102
{ACAD_REACTORS
330
C
102
}
330
C
100
AcDbDictionary
281
     1
  3
Standard
350
18
  0
DICTIONARY
  5
19
102
{ACAD_REACTORS
330
C
102
}
330
C
100
AcDbDictionary
281
     1
  0
ACDBDICTIONARYWDFLT
  5
E
102
{ACAD_REACTORS
330
C
102
}
330
C
100
AcDbDictionary
281
     1
  3
Normal
350
F
100
AcDbDictionaryWithDefault
340
F
  0
DICTIONARY
  5
47
102
{ACAD_REACTORS
330
C
102
}
330
C
100
AcDbDictionary
281
     1
  3
A0
350
48
  3
A1
350
49
  3
A2
350
4A
  3
A3
350
4B
  3
A4
350
4C
  3
A5
350
4D
  3
A6
350
4E
  3
A7
350
4F
  3
A8
350
50
  3
A9
350
51
  3
B0
350
52
  3
B1
350
53
  3
B2
350
54
  3
B3
350
55
  3
B4
350
56
  3
B5
350
57
  3
B6
350
58
  3
B7
350
59
  3
B8
350
5A
  3
B9
350
5B
  3
C0
350
5C
  3
C1
350
5D
  3
C2
350
5E
  3
C3
350
5F
  3
C4
350
60
  3
C5
350
61
  3
C6
350
62
  3
C7
350
63
  3
C8
350
64
  3
C9
350
65
  3
D0
350
66
  3
D1
350
67
  3
D2
350
68
  0
LAYOUT
  5
1E
102
{ACAD_REACTORS
330
1A
102
}
330
1A
100
AcDbPlotSettings
  1

  2
none_device
  4
ISO_A4_(210.00_x_297.00_MM)
  6

 40
7.5
 41
20.0
 42
7.5
 43
20.0
 44
210.0
 45
297.0
 46
0.0
 47
0.0
 48
0.0
 49
0.0
140
0.0
141
0.0
142
1.0
143
3.779766537
 70
   688
 72
     1
 73
     1
 74
     1
  7

 75
     0
147
0.2645666049
148
485.7
149
0.0
100
AcDbLayout
  1
_Back
 70
     1
 71
     1
 10
-561.2953307393
 20
-28.3482490272
 11
561.2953307393
 21
765.4027237354
 12
0.0
 22
0.0
 32
0.0
 14
-485.7
 24
0.0
 34
0.0
 15
485.7
 25
400.0
 35
0.0
146
0.0
 13
0.0
 23
0.0
 33
0.0
 16
1.0
 26
0.0
 36
0.0
 17
0.0
 27
1.0
 37
0.0
 76
     0
330
1B
331
3F5
  0
LAYOUT
  5
278
102
{ACAD_REACTORS
330
1A
102
}
330
1A
100
AcDbPlotSettings
  1

  2
none_device
  4
ISO_A4_(210.00_x_297.00_MM)
  6

 40
7.5
 41
20.0
 42
7.5
 43
20.0
 44
210.0
 45
297.0
 46
0.0
 47
0.0
 48
0.0
 49
0.0
140
0.0
141
0.0
142
1.0
143
3.779766537
 70
   688
 72
     1
 73
     1
 74
     1
  7

 75
     0
147
0.2645666049
148
485.7
149
0.0
100
AcDbLayout
  1
_Isometric
 70
     1
 71
     4
 10
0.0
 20
0.0
 11
0.0
 21
0.0
 12
0.0
 22
0.0
 32
0.0
 14
0.0
 24
0.0
 34
0.0
 15
0.0
 25
0.0
 35
0.0
146
0.0
 13
0.0
 23
0.0
 33
0.0
 16
1.0
 26
0.0
 36
0.0
 17
0.0
 27
1.0
 37
0.0
 76
     0
330
277
331
3FB
  0
LAYOUT
  5
26
102
{ACAD_REACTORS
330
1A
102
}
330
1A
100
AcDbPlotSettings
  1

  2
none_device
  4
ISO_A4_(210.00_x_297.00_MM)
  6

 40
7.5
 41
20.0
 42
7.5
 43
20.0
 44
210.0
 45
297.0
 46
0.0
 47
0.0
 48
0.0
 49
0.0
140
0.0
141
0.0
142
1.0
143
3.779766537
 70
   688
 72
     1
 73
     1
 74
     1
  7

 75
     0
147
0.2645666049
148
485.7
149
0.0
100
AcDbLayout
  1
_Left
 70
     1
 71
     2
 10
0.0
 20
0.0
 11
0.0
 21
0.0
 12
0.0
 22
0.0
 32
0.0
 14
0.0
 24
0.0
 34
0.0
 15
0.0
 25
0.0
 35
0.0
146
0.0
 13
0.0
 23
0.0
 33
0.0
 16
1.0
 26
0.0
 36
0.0
 17
0.0
 27
1.0
 37
0.0
 76
     0
330
23
331
3F7
  0
LAYOUT
  5
18D
102
{ACAD_REACTORS
330
1A
102
}
330
1A
100
AcDbPlotSettings
  1

  2
none_device
  4
ISO_A4_(210.00_x_297.00_MM)
  6

 40
7.5
 41
20.0
 42
7.5
 43
20.0
 44
210.0
 45
297.0
 46
0.0
 47
0.0
 48
0.0
 49
0.0
140
0.0
141
0.0
142
1.0
143
3.779766537
 70
   688
 72
     1
 73
     1
 74
     1
  7

 75
     0
147
0.2645666049
148
485.7
149
0.0
100
AcDbLayout
  1
_Top
 70
     1
 71
     3
 10
0.0
 20
0.0
 11
0.0
 21
0.0
 12
0.0
 22
0.0
 32
0.0
 14
0.0
 24
0.0
 34
0.0
 15
0.0
 25
0.0
 35
0.0
146
0.0
 13
0.0
 23
0.0
 33
0.0
 16
1.0
 26
0.0
 36
0.0
 17
0.0
 27
1.0
 37
0.0
 76
     0
330
18C
331
3F9
  0
LAYOUT
  5
22
102
{ACAD_REACTORS
330
1A
102
}
330
1A
100
AcDbPlotSettings
  1

  2
none_device
  4
ANSI_A_(11.00_x_8.50_Inches)
  6

 40
6.35
 41
19.05
 42
6.35000508
 43
19.05000254
 44
279.4
 45
215.9
 46
133.34999746
 47
31.9500296133
 48
0.0
 49
0.0
140
0.0
141
0.0
142
0.0112106238
143
1.0
 70
  1696
 72
     0
 73
     0
 74
     0
  7

 75
     0
147
0.0179189148
148
-1300.4909072572
149
0.0
100
AcDbLayout
  1
Model
 70
     1
 71
     0
 10
0.0
 20
0.0
 11
420.0
 21
297.0
 12
0.0
 22
0.0
 32
0.0
 14
-485.7
 24
0.0
 34
0.0
 15
485.7
 25
400.0
 35
0.0
146
0.0
 13
0.0
 23
0.0
 33
0.0
 16
1.0
 26
0.0
 36
0.0
 17
0.0
 27
1.0
 37
0.0
 76
     0
330
1F
331
29
  0
MLINESTYLE
  5
18
102
{ACAD_REACTORS
330
17
102
}
330
17
100
AcDbMlineStyle
  2
Standard
 70
     0
  3

 62
   256
 51
90.0
 52
90.0
 71
     2
 49
0.5
 62
   256
  6
BYLAYER
 49
-0.5
 62
   256
  6
BYLAYER
  0
ACDBPLACEHOLDER
  5
F
102
{ACAD_REACTORS
330
E
102
}
330
E
  0
SCALE
  5
48
102
{ACAD_REACTORS
330
47
102
}
330
47
100
AcDbScale
 70
     0
300
1:1
140
1.0
141
1.0
290
     1
  0
SCALE
  5
49
102
{ACAD_REACTORS
330
47
102
}
330
47
100
AcDbScale
 70
     0
300
1:2
140
1.0
141
2.0
290
     0
  0
SCALE
  5
4A
102
{ACAD_REACTORS
330
47
102
}
330
47
100
AcDbScale
 70
     0
300
1:4
140
1.0
141
4.0
290
     0
  0
SCALE
  5
4B
102
{ACAD_REACTORS
330
47
102
}
330
47
100
AcDbScale
 70
     0
300
1:5
140
1.0
141
5.0
290
     0
  0
SCALE
  5
4C
102
{ACAD_REACTORS
330
47
102
}
330
47
100
AcDbScale
 70
     0
300
1:8
140
1.0
141
8.0
290
     0
  0
SCALE
  5
4D
102
{ACAD_REACTORS
330
47
102
}
330
47
100
AcDbScale
 70
     0
300
1:10
140
1.0
141
10.0
290
     0
  0
SCALE
  5
4E
102
{ACAD_REACTORS
330
47
102
}
330
47
100
AcDbScale
 70
     0
300
1:16
140
1.0
141
16.0
290
     0
  0
SCALE
  5
4F
102
{ACAD_REACTORS
330
47
102
}
330
47
100
AcDbScale
 70
     0
300
1:20
140
1.0
141
20.0
290
     0
  0
SCALE
  5
50
102
{ACAD_REACTORS
330
47
102
}
330
47
100
AcDbScale
 70
     0
300
1:30
140
1.0
141
30.0
290
     0
  0
SCALE
  5
51
102
{ACAD_REACTORS
330
47
102
}
330
47
100
AcDbScale
 70
     0
300
1:40
140
1.0
141
40.0
290
     0
  0
SCALE
  5
52
102
{ACAD_REACTORS
330
47
102
}
330
47
100
AcDbScale
 70
     0
300
1:50
140
1.0
141
50.0
290
     0
  0
SCALE
  5
53
102
{ACAD_REACTORS
330
47
102
}
330
47
100
AcDbScale
 70
     0
300
1:100
140
1.0
141
100.0
290
     0
  0
SCALE
  5
54
102
{ACAD_REACTORS
330
47
102
}
330
47
100
AcDbScale
 70
     0
300
2:1
140
2.0
141
1.0
290
     0
  0
SCALE
  5
55
102
{ACAD_REACTORS
330
47
102
}
330
47
100
AcDbScale
 70
     0
300
4:1
140
4.0
141
1.0
290
     0
  0
SCALE
  5
56
102
{ACAD_REACTORS
330
47
102
}
330
47
100
AcDbScale
 70
     0
300
8:1
140
8.0
141
1.0
290
     0
  0
SCALE
  5
57
102
{ACAD_REACTORS
330
47
102
}
330
47
100
AcDbScale
 70
     0
300
10:1
140
10.0
141
1.0
290
     0
  0
SCALE
  5
58
102
{ACAD_REACTORS
330
47
102
}
330
47
100
AcDbScale
 70
     0
300
100:1
140
100.0
141
1.0
290
     0
  0
SCALE
  5
59
102
{ACAD_REACTORS
330
47
102
}
330
47
100
AcDbScale
 70
     0
300
1/128" = 1'-0"
140
0.0078125
141
12.0
290
     0
  0
SCALE
  5
5A
102
{ACAD_REACTORS
330
47
102
}
330
47
100
AcDbScale
 70
     0
300
1/64" = 1'-0"
140
0.015625
141
12.0
290
     0
  0
SCALE
  5
5B
102
{ACAD_REACTORS
330
47
102
}
330
47
100
AcDbScale
 70
     0
300
1/32" = 1'-0"
140
0.03125
141
12.0
290
     0
  0
SCALE
  5
5C
102
{ACAD_REACTORS
330
47
102
}
330
47
100
AcDbScale
 70
     0
300
1/16" = 1'-0"
140
0.0625
141
12.0
290
     0
  0
SCALE
  5
5D
102
{ACAD_REACTORS
330
47
102
}
330
47
100
AcDbScale
 70
     0
300
3/32" = 1'-0"
140
0.09375
141
12.0
290
     0
  0
SCALE
  5
5E
102
{ACAD_REACTORS
330
47
102
}
330
47
100
AcDbScale
 70
     0
300
1/8" = 1'-0"
140
0.125
141
12.0
290
     0
  0
SCALE
  5
5F
102
{ACAD_REACTORS
330
47
102
}
330
47
100
AcDbScale
 70
     0
300
3/16" = 1'-0"
140
0.1875
141
12.0
290
     0
  0
SCALE
  5
60
102
{ACAD_REACTORS
330
47
102
}
330
47
100
AcDbScale
 70
     0
300
1/4" = 1'-0"
140
0.25
141
12.0
290
     0
  0
SCALE
  5
61
102
{ACAD_REACTORS
330
47
102
}
330
47
100
AcDbScale
 70
     0
300
3/8" = 1'-0"
140
0.375
141
12.0
290
     0
  0
SCALE
  5
62
102
{ACAD_REACTORS
330
47
102
}
330
47
100
AcDbScale
 70
     0
300
1/2" = 1'-0"
140
0.5
141
12.0
290
     0
  0
SCALE
  5
63
102
{ACAD_REACTORS
330
47
102
}
330
47
100
AcDbScale
 70
     0
300
3/4" = 1'-0"
140
0.75
141
12.0
290
     0
  0
SCALE
  5
64
102
{ACAD_REACTORS
330
47
102
}
330
47
100
AcDbScale
 70
     0
300
1" = 1'-0"
140
1.0
141
12.0
290
     0
  0
SCALE
  5
65
102
{ACAD_REACTORS
330
47
102
}
330
47
100
AcDbScale
 70
     0
300
1-1/2" = 1'-0"
140
1.5
141
12.0
290
     0
  0
SCALE
  5
66
102
{ACAD_REACTORS
330
47
102
}
330
47
100
AcDbScale
 70
     0
300
3" = 1'-0"
140
3.0
141
12.0
290
     0
  0
SCALE
  5
67
102
{ACAD_REACTORS
330
47
102
}
330
47
100
AcDbScale
 70
     0
300
6" = 1'-0"
140
6.0
141
12.0
290
     0
  0
SCALE
  5
68
102
{ACAD_REACTORS
330
47
102
}
330
47
100
AcDbScale
 70
     0
300
1'-0" = 1'-0"
140
12.0
141
12.0
290
     0
  0
ENDSEC
  0
EOF
